» » »

Imago, Sundo Tabs (ver.1)

Artists:  A B C D E F G H I J K L M N O P Q R S T U V W X Y Z # 

Sundo Tabs (ver.1)

Imago Tabs
 Rating:
4.7/5 (12 votes)
Sundo lessons Tabs too difficult? Try these video lessons and learn fast
                Album:Blush
 
For your questions or suggestions,just post in friendster comment,PM or mail me.

Gtr.Legends:
~ - let it ring
x - dead string

Gtr.Tuning:Standard(Normal)

Intro:
Gtr.1
e|-0~--0~--0~-2~---|
B|-2~--2~--2~-3~---|
G|-2~--1~--0~-2~---| 2x
D|---------2~------|
A|-----------------|
E|-----------------|

Gtr.2
e|---0------0---------0------0---------0------0---------0------0----0--------
B|-----9------9---------9------9---------8------8---------7-----------7------
G|-9------9-----9---9------9-----9---9------9-----9---9-----9-----9------9---
D|---------------------------------------------------------------------------
A|---------------------------------------------------------------------------
E|---------------------------------------------------------------------------

---0------0---------0------0---------0------0---------0-----------|
-----9------9---------9------9---------8------8---------7----7~---|
-9------9-----9---9------9-----9---9------9-----9---9-----9-------|
------------------------------------------------------------------|
------------------------------------------------------------------|
------------------------------------------------------------------|

Verse 1:Kaytagal kong...
Gtr.1(Clean Gtr.)
e|-00000--00000-00000--22222~---|
B|-22222--22222-22222--33333~---|      
G|-22222--11111-xxxxx--22222~---| 2x
D|--------------22222-----------|
A|------------------------------|
E|------------------------------|

Gtr.2(Chorus Effect)
e|-0~-----0~----0~-----2~---|
B|-2~-----2~----2~-----3~---|
G|-2~-----1~----x------2~---| 2x
D|--------------2~----------|
A|--------------------------|
E|--------------------------|

Pre-Chorus:Sinusundo...
Gtr.1
e|--------------------|
B|--------------------|
G|-1111111111111111---|
D|-2222222222222222---|
A|-2222222222222222---|
E|-0000000000000000---|

Gtr.2
e|--------------------|
B|--------------------|
G|-9999999999999999---|
D|-9999999999999999---|
A|-7777777777777777---|
E|--------------------|

Chorus:Asahan mong...
Gtr.1
e|-00000-----------2222---|
B|-22222-3333-3333-3333---|
G|-22222-0000-4444-2222---| 2x
D|-------2222-4444--------|
A|-------2222-2222--------|
E|-------0000-------------|

Gtr.2
e|------------------------|
B|------------------------|
G|------------------------|
D|-77777-9999-9999-7777---|
A|-77777-7777-9999-5555---|
E|-55555------7777--------|

Pre-Verse 2:
Gtr.1
e|-00000--00000---|
B|-22222--22222---|
G|-22222--11111---| 2x
D|----------------|
A|----------------|
E|----------------|

Gtr.2
e|---0------0---------0------0--------|
B|-----9------9---------9------9------|
G|-9------9-----9---9------9-----9----| Listen to the song for timing...
D|------------------------------------|
A|------------------------------------|
E|------------------------------------|

Verse 2:Sa akin mo...
Play Verse 1

Repeat Pre-Chorus:

Repeat Chorus:

Last Chord:
e|------|
B|-2~---|
G|-4~---|
D|-4~---|
A|-2~---|
E|------|

End...


Sundo Lyrics:

Verse 1
Kay tagal kong sinusuyod
ang buong mundo
Para hanapin,
para hanapin ka
Nilibot ang distrito
ng iyong lumbay
Pupulutin, pupulutin ka

Pre-Chorus:
Sinusundo kita,
Sinusundo...

Chorus:
Asahan mong mula ngayon
pag-ibig ko?y sayo
Asahan mong mula ngayon
pag-ibig ko?y sayo

verse 2:
Sa akin mo isabit
ang iyong lumbay
Di kukulangin
ang ibibigay
Isuko ang kaba
tuluyan kang bumitaw
Ika?y man*lig
Man*lig ka..

Repeat Pre-Chorus:

Long Chorus:
Asahan mong mula ngayon
pag-ibig ko?y sayo
Asahan mong mula ngayon
pag-ibig ko?y sayo

Handa na sa liwanag mo
Sinuyod ang buong mundo
Maghihintay sayo?ng sundo
            
Submit corrections

comments powered by Disqus
↑ Back to top | Imago Tabs for Sundo. Lyrics for acoustic guitar and electric guitar. Tablatures and chords are parodies/interpretations of the original songs. You may use it for private study, scholarship, research or language learning purposes only