» » »

Akap Tabs (ver.2)

Artists:  A B C D E F G H I J K L M N O P Q R S T U V W X Y Z # 

Akap Tabs (ver.2)

Imago
Rating:
0/5 (0 votes)

Hard to play? Try these video lessons and learn fast.
                4MVC

signal to intro (play intro when signal plays on the 15th fret - play until intro enters):
E -------------------------------------------------------------------------|
B -15-15-15-15-15-15-15-15-14-14-14-14-14-14-14-14-------------------------|
G -------------------------------------------------------------------------|
D -------------------------------------------------14-14-14-14-14-14-14-14-|
A -------------------------------------------------------------------------|
E -------------------------------------------------------------------------|

intro (repeat 4 times - *transition from 15 to 14 on B string - use slide):
E -------------------------------------------------------------------------|
B -15-14-------------------15-14-------------------15-14-------------------|
G ----------14-13-14-13----------14-13-14-13-------------14-13-14-13-------|
D -------------------------------------------------------------------------|
A -------------------------------------------------------------------------|
E -------------------------------------------------------------------------|

power chords used:
	A	A/G#	F#m	G#m	D	E
E ----x------x-----x-----x----x-----x--------------------------------------|
B ----x------x-----x-----x----x-----x--------------------------------------|
G ----x------x-----x-----x----7-----9--------------------------------------|
D ----7------7-----4-----6----7-----9--------------------------------------|
A ----7------7-----4-----6----5-----7--------------------------------------|
E ----5------4-----2-----5----x-----x--------------------------------------|

*on the A verse chord, sometimes AdL ;) uses:
	A
E ----x----|
B ----x----|
G ----2----|
D ----2----|
A ----x----|
E ----x----|

Verse 1:
A
 Nagtatanong
A/G#		       F#m		     D
 Bakit mahirap sumabay sa agos ng iyong mundo
A
 Nagtataka
A/G#			   F#m		    D		   E
 Simple lang naman sana ang buhay kung ika'y matino

Chorus:
  A
Sabihin sa 'kin
  F#m		   D		    A
Lahat ng lihim mo, iingatan ko
 A
Ibaling sa 'kin
F#m		   D		   A
Ang problema mo, kakayanin ko

Verse 2:
A
 Pikit-mata
A/G#		       F#m		      D
 Kong iaalay ang buwan at araw pati pa sapatos kong suot
A
 Nagtatanong
A/G#			   F#m		    D		   E
 Simple lang naman sana ang buhay kung ika'y lumayo

Repeat Chorus

Bridge:
E			    A
 Sasamahan ka sa tamis
			    E
 Sasamahan ka sa dilim
				  A
 Sasamahan ka sa hanggang langit
			    E
 Sasamahan ka sa tamis
			   A
 Sasamahan ka sa pait
			    E
 Sasamahan ka sa dilim
			        A
 Sasamahan ka sa hanggang langit

 Sasamahan ka...
E
 Oh oh oh oh
A
 Oh oh oh oh wuoh
E            A
 Oh oh oh oh owuoh
E
 Oh oh oh oh
A
 Oh oh oh oh wuoh
E            A
 Oh oh oh oh owuoh

Repeat Chorus

Adlib (to played with the intro tab above - use slide)
AdL's part:
E ----55555-777-9 9 9--14-11111-5-22222-7-55555-777-9 9 9--14--------------|
B ----55555-777-9 9 9--14-11111-5-22222-7-55555-777-9 9 9--14-555555555555-|
G ----55555-777-9 9 9--14-11111-5-22222-7-55555-777-9 9 9--14-666666666666-|
D ----55555-777-9 9 9--14-11111-5-22222-7-55555-777-9 9 9--14-777777777777-|
A ----77777-999-111111-16-33333-7-44444-9-77777-999-111111-16-777777777777-|
E ----55555-777-9 9 9--14-11111-5-22222-7-55555-777-9 9 9--14--------------|

Outro:
    A		 A	     F#m	  F#m
E--------------------------------------------------------------------------|
B--------------------------------------------------------------------------|
G--------------------------------------------------------------------------|
D--7777-xxx-7777-xxx--4444-xxx-4444----------------------------------------|
A--7777-xxx-7777-xxx--4444-xxx-4444----------------------------------------|
E--5555-xxx-5555-xxx--2222-xxx-2222----------------------------------------|

   B/C#m   D	  D/E   D    C#m	A
E--------------------------------------------------------------------------|
B--------------------------------------------------------------------------|
G--4\6----7777xxxx7777\9--7----6-------------------------------------------|
D--4\6----7777xxxx7777\9--7----6----7--------------------------------------|
A--2\4----5555xxxx5555\7--5----4----7--------------------------------------|
E-----------------------------------5--------------------------------------|
            
Hard to play? Try these video lessons and learn fast. | Correct




comments powered by Disqus
↑ Back to top | Tablatures and chords are parodies/interpretations of the original songs. You may use it for private study, scholarship, research or language learning purposes only