>
 >
Akap

Akap Guitar Tabs

Imago - Akap chords, tabs, tablatures, lyrics

Guitar lessons | Add/correct | Request | Top 50 tabs Artists:  A B C D E F G H I J K L M N O P Q R S T U V W X Y Z 0-9

Akap Guitar Tabs – Imago

CD, Sheet music, Poster

Do you like Akap? Share with your friends now
Bass TabsChordsTabsTabs v2Ukulele
Artist   : Imago
Title    : Akap
Legend   :
    >=Down Stroke
    <=Up Stroke
    x=Palm Mute 
    \=Slide
    H=Hammer On
    P=Pull Off
    ^=Bend
    ~=Vibrato
    #=Let Ring
Tuning   : E A D G B e


Kayo na lang ang bahala sa strumming ha...pero halos lahat naman puro downstokes lang
eh...pakinggan nyo na lang para malaman nyo...(",)

Intro(Guitar 1)
e|--------------------------|
B|--------------------------|
G|--------------------------|
D|--7--6--4--6--7-----------|
A|--7--7--4--6--7-----------|
E|--5--4--2--4--5-----------|

     (Guitar 2/Fill lead - hanapin nyo na lang kung san nyo maririning yang part na
yan, tapos dun nyo tugtugin)
e|--10p9--------------------|
B|-------9-10p9-9-10p9------|
G|--------------------------| x12
D|--------------------------| 
A|--------------------------|
E|--------------------------|

Verse 1
e|-------------------------------|
B|-------------------------------|
G|-----------7------------7--9---|
D|--7--6--4--7---7--6--4--7--9---|
A|--7--7--4--5---7--7--4--5--7---|
E|--5--4--2------5--4--2---------|

Chorus
e|--------------------|
B|--------------------|
G|--------7-----------| x2
D|--7--4--7--7--------|
A|--7--4--5--7--------|
E|--5--2-----5--------|

Verse 2
e|-------------------------------|
B|-------------------------------|
G|-----------7------------7--9---|
D|--7--6--4--7---7--6--4--7--9---|
A|--7--7--4--5---7--7--4--5--7---|
E|--5--4--2------5--4--2---------|

Chorus
e|--------------------|
B|--------------------|
G|--------7-----------| x2
D|--7--4--7--7--------|
A|--7--4--5--7--------|
E|--5--2-----5--------|

Bridge
e|------------------|
B|------------------|
G|--9-----9---------| x4
D|--9--7--9--7------|
A|--7--7--7--7------|
E|-----5-----5------|

Chorus
e|--------------------|
B|--------------------|
G|--------7-----------| x2
D|--7--4--7--7--------|
A|--7--4--5--7--------|
E|--5--2-----5--------|

Outro 1
e|------------------------------------------------------------------------|
B|------------------------------------------------------------------------|
G|------------------------------------------------------------------------| 
D|--7-----5/9—-9-----9/11--7-----7/14--14---------------------------------|
A|--x-x4--x/x—-x-x2—-x/x---x-x2—-x/x---x---x2-----------------------------|
E|--5-----7/7—-7-----7/9---9-----9/12--12---------------------------------|Repeat both x2

e|------------------------------------------------------------------------|
B|------------------------------------------------------------------------|
G|------------------------------------------------------------------------| 
D|--4-----4/7—-7-----7\4--4-----9---11--12------14-----16------7------7~--|
A|--x-x4--x/x—-x-x2—-x\x--x-x4--x---x---x—-x4---x—x4---x—-x4---x—-x4—-x~--|
E|--2-----2/5—-5-----5\2--2-----7---9---10------12-----14------17-----5~--|

Outro 2
e|--------------------------------------------------------------------------|
B|--------------------------------------------------------------------------|
G|--------------------------------------------------------------------------|
D|-7----xx—-7----7/4—-4-----xx--4-----9--11--12-----xx--12----14--12--11--7~|
A|-x-x4-xx—-x-x4-x/x—-x-x4—-xx--x-x3--x--x---x—-x4--xx--x—x4--x—--x—-—x---7~|
E|-5----xx—-5----5/2—-2-----xx--2-----7--9---10-----xx--10----12--10--9---5~|


Lyrics: (cenxa na po kasi di ko kasi sure kung tama yang lyrics ko eh...pero pede na rin yan)

Chords
e|--0-------2---2--|
B|--2-------2---3--|
G|--2---1---2---2--|
D|--2---2---4------|
A|--0---2---4------|
E|------0---2------|
    A   E  F#m  D

Verse 1
A
Nagtatanong...
E                 F#m              D
Bakit mahirap sumabay sa agos ng iyong ulo?
A
Nagtataka...
E                   F#m                  D         E
Simple lang naman sana ang buhay, ba't ika'y lumingon?

Chorus
  A             F#m          D
Sabihin sakin lahat ng lihim mo
   D-
Iingatan ko
  A           F#m          D
Ibaling sakin ang problema mo
   D-     A
Kakayanin ko...

Verse 2 (Ulit lang ang chords)
Pikit mata...
Kung iaalay, buwan at araw
Pati pa sapatos kong suot

Verse 3
Nagtatanong..
Simple lang naman sana ang buhay
Kung ika'y lumayo

Repeat Chorus x1

Bridge
E		   A
Sasamahan ka sa tamis 
E		    A
Sasamahan ka sa dilim
E		          A 
Sasamahan ka hanggang langit
E		   A
Sasamahan ka sa tamis
E		   A
Sasamahan ka sa pait 
E		    A
Sasamahan ka sa dilim
E		           A 
Sasamahan ka hanggang langit
E	    A
Sasamahan ka...
E	A
Oohhh...oohhh...
E	 A
Oooohhh...oohhh...
E	A
Oohhohh....

Repeat Chorus
Outro


For comments, questions, suggestions and request i-mail nyo na lang sa e-mail add
ko...andun sa taas ung add ko...saka paki rate na rin ha...plssss......





Comments


Popular Imago tabs & chords
Ewan Chords
Sundo 2 Chords
Under Repair Chords
Tara Lets Tabs
Tara Lets 1 Tabs
Taralets Tabs
Ewan Ukulele
Laya Ukulele
So Be It Ukulele
Walang Misteryo Ukulele


Song lyrics



↑ Back to top | Tablatures and chords are parodies/interpretations of the original songs. You may use it for private study, scholarship, research or language learning purposes only
© 2014 AZChords.com Contact us | Privacy policy | DMCA | Add/correct tabs | Request tabs | Top 50 tabs