» » »

I Saw Her Standing There Bass tabs (ver.1)

Artists:  A B C D E F G H I J K L M N O P Q R S T U V W X Y Z # 

I Saw Her Standing There Bass tabs (ver.1)

Hurriganes
Rating:
0/5 (0 votes)

Hard to play? Try these video lessons and learn fast.
                Hurriganes- I Saw Her Standing There                             

                                                                     



     W                   W                   E  E  E  E  E  E  E  E   
G||-------------------|-------------------|--------------------------|
D||-------------------|-------------------|--------4-----7-----5--4--|
A||-------------------|-------------------|--5--5-----5-----5--------|
E||-------------------|-------------------|--------------------------|


  E  E  E  E  E  E  E  E     E  E  E  E  E  E  E  E   
--------------------------|--------------------------|
--------4-----7-----5--4--|--------4-----7-----5--4--|
--5--5-----5-----5--------|--5--5-----5-----5--------|
--------------------------|--------------------------|


  E  E  E  E  E  E  E  E       E  E  E  E  E  E  E  E   
--------------------------||---------------------------|
--------4-----7-----5--4--||*--------4-----7-----5--4--|
--5--5-----5-----5--------||*--5--5-----5-----5--------|
--------------------------||---------------------------|


  E  E  E  E  E  E  E  E     E  E  E  E  E  E  E  E   
--------------------------|--------------------------|
--------4-----7-----5--4--|--------------------------|
--5--5-----5-----5--------|--------2-----5-----3--2--|
--------------------------|--3--3-----3-----3--------|


  E  E  E  E  E  E  E  E     E  E  E  E  E  E  E  E   
--------------------------|--------------------------|
--------4-----7-----5--4--|--------4-----7-----5--4--|
--5--5-----5-----5--------|--5--5-----5-----5--------|
--------------------------|--------------------------|


  E  E  E  E  E  E  E  E     E  E  E  E  E  E  E  E   
--------------------------|--------------------------|
--------4-----7-----5--4--|--------------------------|
--5--5-----5-----5--------|--------4-----7-----5--4--|
--------------------------|--5--5-----5-----5--------|


  E  E  E  E  E  E  E  E     E  E  E  E  E  E  E  E   
--------------------------|--------------------------|
--------------------------|--------------------------|
--------4-----7-----5--4--|--5--5--5--5--5--5--5--5--|
--5--5-----5-----5--------|--------------------------|


  E  E  E  E  E  E  E  E     E  E  E  E  E  E  E  E   
--------------------------|--------------------------|
--4--4--4--4--4--4--4--4--|--5--5--5--5--5--5--5--5--|
--------------------------|--------------------------|
--------------------------|--------------------------|


  E  E  E  E  E  E  E  E     E  E  E  E  E  E  E  E   
--------------------------|--------------------------|
--8--8--8--8--8--8--8--8--|--------4-----7-----5--4--|
--------------------------|--5--5-----5-----5--------|
--------------------------|--------------------------|


  E  E  E  E  E  E  E  E     E  E  E  E  E  E  E  E   
--------------------------|--------------------------|
--------------------------|--------4-----7-----5--4--|
--------4-----7-----5--4--|--5--5-----5-----5--------|
--5--5-----5-----5--------|--------------------------|


  E  E  E  E  E  E  E  E       E  E  E  E  E  E  E  E   
---------------------------||--------------------------|
--------4-----7-----5--4--*||--------------------------|
--5--5-----5-----5--------*||--------2-----5-----3--2--|
---------------------------||--3--3-----3-----3--------|


  E  E  E  E  E  E  E  E     E  E  E  E  E  E  E  E   
--------------------------|--------------------------|
--------------------------|--------------------------|
--------2-----5-----3--2--|--------2-----5-----3--2--|
--3--3-----3-----3--------|--3--3-----3-----3--------|


  E  E  E  E  E  E  E  E     E  E  E  E  E  E  E  E   
--------------------------|--------------------------|
--------------------------|--------------------------|
--------2-----5-----3--2--|--------2-----5-----3--2--|
--3--3-----3-----3--------|--3--3-----3-----3--------|


  E  E  E  E  E  E  E  E     E  E  E  E  E  E  E  E   
--------------------------|--------------------------|
--------------------------|--------------------------|
--------2-----5-----3--2--|--------4-----7-----5--4--|
--3--3-----3-----3--------|--5--5-----5-----5--------|


  E  E  E  E  E  E  E  E     E  E  E  E  E  E  E  E   
--------------------------|--------------------------|
--------------------------|--------------------------|
--------4-----7-----5--4--|--------2-----5-----3--2--|
--5--5-----5-----5--------|--3--3-----3-----3--------|


  E  E  E  E  E  E  E  E     E  E  E  E  E  E  E  E   
--------------------------|--------------------------|
--------------------------|--------4-----7-----5--4--|
--------2-----5-----3--2--|--5--5-----5-----5--------|
--3--3-----3-----3--------|--------------------------|


  E  E  E  E  E  E  E  E     E  E  E  E  E  E  E  E   
--------------------------|--------------------------|
--------4-----7-----5--4--|--------------------------|
--5--5-----5-----5--------|--------2-----5-----3--2--|
--------------------------|--3--3-----3-----3--------|


  E  E  E  E  E  E  E  E     E  E  E  E  E  E  E  E   
--------------------------|--------------------------|
--------4-----7-----5--4--|--------4-----7-----5--4--|
--5--5-----5-----5--------|--5--5-----5-----5--------|
--------------------------|--------------------------|


  E  E  E  E  E  E  E  E     E  E  E  E  E  E  E  E   
--------------------------|--------------------------|
--------4-----7-----5--4--|--------------------------|
--5--5-----5-----5--------|--------4-----7-----5--4--|
--------------------------|--5--5-----5-----5--------|


  E  E  E  E  E  E  E  E     E  E  E  E  E  E  E  E   
--------------------------|--------------------------|
--------------------------|--------------------------|
--------4-----7-----5--4--|--5--5--5--5--5--5--5--5--|
--5--5-----5-----5--------|--------------------------|


  E  E  E  E  E  E  E  E     E  E  E  E  E  E  E  E   
--------------------------|--------------------------|
--4--4--4--4--4--4--4--4--|--5--5--5--5--5--5--5--5--|
--------------------------|--------------------------|
--------------------------|--------------------------|


  E  E  E  E  E  E  E  E     E  E  E  E  E  E  E  E   
--------------------------|--------------------------|
--8--8--8--8--8--8--8--8--|--------4-----7-----5--4--|
--------------------------|--5--5-----5-----5--------|
--------------------------|--------------------------|


  E  E  E  E  E  E  E  E     E  E  E  E  E  E  E  E   
--------------------------|--------------------------|
--------------------------|--------4-----7-----5--4--|
--------4-----7-----5--4--|--5--5-----5-----5--------|
--5--5-----5-----5--------|--------------------------|


  E  E  E  E  E  E  E  E     E  E  E  E  E  E  E  E   
--------------------------|--------------------------|
--------4-----7-----5--4--|--------4-----7-----5--4--|
--5--5-----5-----5--------|--5--5-----5-----5--------|
--------------------------|--------------------------|


  E  E  E  E  E  E  E  E     E  E  E  E  E  E  E  E   
--------------------------|--------------------------|
--------4-----7-----5--4--|--------------------------|
--5--5-----5-----5--------|--------2-----5-----3--2--|
--------------------------|--3--3-----3-----3--------|


  E  E  E  E  E  E  E  E     E  E  E  E  E  E  E  E   
--------------------------|--------------------------|
--------4-----7-----5--4--|--------4-----7-----5--4--|
--5--5-----5-----5--------|--5--5-----5-----5--------|
--------------------------|--------------------------|


  E  E  E  E  E  E  E  E     E  E  E  E  E  E  E  E   
--------------------------|--------------------------|
--------4-----7-----5--4--|--------------------------|
--5--5-----5-----5--------|--------4-----7-----5--4--|
--------------------------|--5--5-----5-----5--------|


  E  E  E  E  E  E  E  E     E  E  E  E  E  E  E  E   
--------------------------|--------------------------|
--------------------------|--------------------------|
--------4-----7-----5--4--|--5--5--5--5--5--5--5--5--|
--5--5-----5-----5--------|--------------------------|


  E  E  E  E  E  E  E  E     E  E  E  E  E  E  E  E   
--------------------------|--------------------------|
--4--4--4--4--4--4--4--4--|--5--5--5--5--5--5--5--5--|
--------------------------|--------------------------|
--------------------------|--------------------------|


  E  E  E  E  E  E  E  E     E  E  E  E  E  E  E  E   
--------------------------|--------------------------|
--8--8--8--8--8--8--8--8--|--------4-----7-----5--4--|
--------------------------|--5--5-----5-----5--------|
--------------------------|--------------------------|


  E  E  E  E  E  E  E  E     E  E  E  E  E  E  E  E   
--------------------------|--------------------------|
--------------------------|--------4-----7-----5--4--|
--------4-----7-----5--4--|--5--5-----5-----5--------|
--5--5-----5-----5--------|--------------------------|


  E  E  E  E  E  E  E  E     E  E  E  E  E  E  E  E   
--------------------------|--------------------------|
--------4-----7-----5--4--|--------4-----7-----5--4--|
--5--5-----5-----5--------|--5--5-----5-----5--------|
--------------------------|--------------------------|


  E  E  E  E  E  E  E  E     E  E  E  E  E  E  E  E   
--------------------------|--------------------------|
--------------------------|--------4-----7-----5--4--|
--------4-----7-----5--4--|--5--5-----5-----5--------|
--5--5-----5-----5--------|--------------------------|


  E  E  E  E  E  E  E  E     E  E  E  E  E  E  E  E   
--------------------------|--------------------------|
--------4-----7-----5--4--|--------4-----7-----5--4--|
--5--5-----5-----5--------|--5--5-----5-----5--------|
--------------------------|--------------------------|


  E  E  E  E  E  E  E  E     E  E  E  E  E  E  E  E     Q    Q    Q    Q     
--------------------------|--------------------------|----------------------|
--------------------------|--------------------------|----------------------|
--------4-----7-----5--4--|--------------------------|--5---------3----5----|
--5--5-----5-----5--------|--3--3--3--3--3--3--3--3--|-------5--------------|


  Q    H.             
--------------------||
--------------------||
-------5------------||
--------------------||




Duration Legend
---------------
W - whole
H - half
Q - quarter
E - 8th
S - 16th
T - 32nd
X - 64th
. - note dotted
|-n-|  - n-tuplets


Tablature Legend
----------------
L - tied note
x - dead note
g - grace note
(n) - ghost note
> - accentuded note
NH - natural harmonic
AH - artificial harmonic
TH - tapped harmonic
SH - semi harmonic
PH - pitch harmonic
h - hammer on
p - pull off
b - bend
br - bendRelease
pb - preBend
pbr - preBendRelease
brb - bendReleaseBend
\n/ - tremolo bar dip
\n - tremolo bar dive
-/n - tremolo bar Release up
/n\ - tremolo bar inverted dip
/n - tremolo bar return
-\n - tremolo bar Release down
S - shift slide
s - legato slide
/ -  slide into from below or out of upwards
\ -  slide into from above or out of downwards
~ - vibrato
W - wide vibrato
tr - trill
TP - tremolo picking
T - tapping
S - slap
P - pop
< - fade in
^ - brush up
v - brush down
            
Hard to play? Try these video lessons and learn fast. | Correct




comments powered by Disqus
↑ Back to top | Tablatures and chords are parodies/interpretations of the original songs. You may use it for private study, scholarship, research or language learning purposes only