>
 >
I Saw Her Standing There

I Saw Her Standing There Guitar Tabs

Hurriganes - I Saw Her Standing There chords, tabs, tablatures, lyrics

Guitar lessons | Add/correct | Request | Top 50 tabs Artists:  A B C D E F G H I J K L M N O P Q R S T U V W X Y Z 0-9

I Saw Her Standing There Guitar Tabs – Hurriganes

CD, Sheet music, Poster

Do you like I Saw Her Standing There? Share with your friends now
Bass TabsTabs
Hurriganes- I Saw Her Standing There (Lennon/McCartney)


Gtr.1

     W                   W                   E  E  E  E  E  E  E  E   
E||-------------------|-------------------|--------------------------|
B||-------------------|-------------------|--------------------------|
G||--7----------------|--L----------------|--7--7--7--x--7--x--x--7--|
D||--7----------------|--L----------------|--7--7--7--x--7--x--x--7--|
A||--5----------------|--L----------------|--5--5--5--x--5--x--x--5--|
E||-------------------|-------------------|--------------------------|


  E  E  E  E  E  E  E  E     E  E  E  E  E  E  E  E   
--------------------------|--------------------------|
--------------------------|--------------------------|
--L--7--7--7--7--7--7--7--|--7--7--7--x--7--x--x--7--|
--L--7--7--7--7--7--7--7--|--7--7--7--x--7--x--x--7--|
--L--5--5--5--5--5--5--5--|--5--5--5--x--5--x--x--5--|
--------------------------|--------------------------|


  E  E  E  E  E  E  E  E       E  E  E  E  E  E  E  E   
--------------------------||---------------------------|
--------------------------||---------------------------|
--L--7--7--7--7--7--7--7--||*--7--7--7--x--7--x--x--7--|
--L--7--7--7--7--7--7--7--||*--7--7--7--x--7--x--x--7--|
--L--5--5--5--5--5--5--5--||---5--5--5--x--5--x--x--5--|
--------------------------||---------------------------|


  E  E  E  E  E  E  E  E     E  E  E  E  E  E  E  E   
--------------------------|--------------------------|
--------------------------|--------------------------|
--L--7--7--7--7--7--7--7--|-----------------------7--|
--L--7--7--7--7--7--7--7--|--5--5--5--x--5--x--x--7--|
--L--5--5--5--5--5--5--5--|--5--5--5--x--5--x--x--5--|
--------------------------|--3--3--3--x--3--x--x-----|


  E  E  E  E  E  E  E  E     E  E  E  E  E  E  E  E   
--------------------------|--------------------------|
--------------------------|--------------------------|
--L--7--7--7--7--7--7--7--|--7--7--7--x--7--x--x--7--|
--L--7--7--7--7--7--7--7--|--7--7--7--x--7--x--x--7--|
--L--5--5--5--5--5--5--5--|--5--5--5--x--5--x--x--5--|
--------------------------|--------------------------|


  E  E  E  E  E  E  E  E     E  E  E  E  E  E  E  E   
--------------------------|--------------------------|
--------------------------|--------------------------|
--L--7--7--7--7--7--7--7--|--------------------------|
--L--7--7--7--7--7--7--7--|--7--7--7--x--7--x--x--7--|
--L--5--5--5--5--5--5--5--|--7--7--7--x--7--x--x--7--|
--------------------------|--5--5--5--x--5--x--x--5--|


  E  E  E  E  E  E  E  E     E  E  E  E  E  E  E  E   
--------------------------|--------------------------|
--------------------------|--------------------------|
--------------------------|--7--7--7--x--7--x--x--7--|
--L--7--7--7--7--7--7--7--|--7--7--7--x--7--x--x--7--|
--L--7--7--7--7--7--7--7--|--5--5--5--x--5--x--x--5--|
--L--5--5--5--5--5--5--5--|--------------------------|


  E  E  E  E  E  E  E  E     E  E  E  E  E  E  E  E   
--------------------------|--------------------------|
--------------------------|--------------------------|
--L--7--7--7--7--7--7--7--|--------------------------|
--L--7--7--7--7--7--7--7--|--5--5--5--5--5--5--5--5--|
--L--5--5--5--5--5--5--5--|--5--5--5--5--5--5--5--5--|
--------------------------|--3--3--3--3--3--3--3--3--|


  E  E  E  E  E  E  E  E     E  E  E  E  E  E  E  E   
--------------------------|--------------------------|
--------------------------|--------------------------|
--------------------------|--7--7--7--x--7--x--x-----|
--8--8--8--8--8--8--8--8--|--7--7--7--x--7--x--x--7--|
--8--8--8--8--8--8--8--8--|--5--5--5--x--5--x--x--7--|
--6--6--6--6--6--6--6--6--|-----------------------5--|


  E  E  E  E  E  E  E  E     E  E  E  E  E  E  E  E   
--------------------------|--------------------------|
--------------------------|--------------------------|
--------------------------|--7--7--7--x--7--x--x--7--|
--L--7--7--7--7--7--7--7--|--7--7--7--x--7--x--x--7--|
--L--7--7--7--7--7--7--7--|--5--5--5--x--5--x--x--5--|
--L--5--5--5--5--5--5--5--|--------------------------|


  E  E  E  E  E  E  E  E       E  E  E  E  E  E  E  E   
---------------------------||--------------------------|
---------------------------||--------------------------|
--L--7--7--7--7--7--7--7--*||--------------------------|
--L--7--7--7--7--7--7--7--*||--------------------------|
--L--5--5--5--5--5--5--5---||--5--5--7--5--5--5--7--5--|
---------------------------||--3--3--3--3--3--3--3--3--|


  E  E  E  E  E  E  E  E     E  E  E  E  E  E  E  E   
--------------------------|--------------------------|
--------------------------|--------------------------|
--------------------------|--------------------------|
--------------------------|--------------------------|
--5--5--7--5--5--5--7--5--|--5--5--7--5--5--5--7--5--|
--3--3--3--3--3--3--3--3--|--3--3--3--3--3--3--3--3--|


  E  E  E  E  E  E  E  E     E  E  E  E  E  E  E  E   
--------------------------|--------------------------|
--------------------------|--------------------------|
--------------------------|--------------------------|
--------------------------|--------------------------|
--5--5--7--5--5--5--7--5--|--5--5--7--5--5--5--7--5--|
--3--3--3--3--3--3--3--3--|--3--3--3--3--3--3--3--3--|


  E  E  E  E  E  E  E  E     E  E  E  E  E  E  E  E   
--------------------------|--------------------------|
--------------------------|--------------------------|
--------------------------|--------------------------|
--------------------------|--7--7--7--7--7--7--7--7--|
--5--5--7--5--5--5--7--5--|--7--7--7--7--7--7--7--7--|
--3--3--3--3--3--3--3--3--|--5--5--5--5--5--5--5--5--|


  E  E  E  E  E  E  E  E     E  E  E  E  E  E  E  E   
--------------------------|--------------------------|
--------------------------|--------------------------|
--------------------------|--------------------------|
--7--7--7--7--7--7--7--7--|--------------------------|
--7--7--7--7--7--7--7--7--|--5--5--7--5--5--5--7--5--|
--5--5--5--5--5--5--5--5--|--3--3--3--3--3--3--3--3--|


  E  E  E  E  E  E  E  E     E  E  E  E  E  E  E  E   
--------------------------|--------------------------|
--------------------------|--------------------------|
--------------------------|--7--7--7--x--7--x--x--7--|
--------------------------|--7--7--7--x--7--x--x--7--|
--5--5--7--5--5--5--7--5--|--5--5--5--x--5--x--x--5--|
--3--3--3--3--3--3--3--3--|--------------------------|


  E  E  E  E  E  E  E  E     E  E  E  E  E  E  E  E   
--------------------------|--------------------------|
--------------------------|--------------------------|
--L--7--7--7--7--7--7--7--|-----------------------7--|
--L--7--7--7--7--7--7--7--|--5--5--5--x--5--x--x--7--|
--L--5--5--5--5--5--5--5--|--5--5--5--x--5--x--x--5--|
--------------------------|--3--3--3--x--3--x--x-----|


  E  E  E  E  E  E  E  E     E  E  E  E  E  E  E  E   
--------------------------|--------------------------|
--------------------------|--------------------------|
--L--7--7--7--7--7--7--7--|--7--7--7--x--7--x--x--7--|
--L--7--7--7--7--7--7--7--|--7--7--7--x--7--x--x--7--|
--L--5--5--5--5--5--5--5--|--5--5--5--x--5--x--x--5--|
--------------------------|--------------------------|


  E  E  E  E  E  E  E  E     E  E  E  E  E  E  E  E   
--------------------------|--------------------------|
--------------------------|--------------------------|
--L--7--7--7--7--7--7--7--|--------------------------|
--L--7--7--7--7--7--7--7--|--7--7--7--x--7--x--x--7--|
--L--5--5--5--5--5--5--5--|--7--7--7--x--7--x--x--7--|
--------------------------|--5--5--5--x--5--x--x--5--|


  E  E  E  E  E  E  E  E     E  E  E  E  E  E  E  E   
--------------------------|--------------------------|
--------------------------|--------------------------|
--------------------------|--7--7--7--x--7--x--x--7--|
--L--7--7--7--7--7--7--7--|--7--7--7--x--7--x--x--7--|
--L--7--7--7--7--7--7--7--|--5--5--5--x--5--x--x--5--|
--L--5--5--5--5--5--5--5--|--------------------------|


  E  E  E  E  E  E  E  E     E  E  E  E  E  E  E  E   
--------------------------|--------------------------|
--------------------------|--------------------------|
--L--7--7--7--7--7--7--7--|--------------------------|
--L--7--7--7--7--7--7--7--|--5--5--5--5--5--5--5--5--|
--L--5--5--5--5--5--5--5--|--5--5--5--5--5--5--5--5--|
--------------------------|--3--3--3--3--3--3--3--3--|


  E  E  E  E  E  E  E  E     E  E  E  E  E  E  E  E   
--------------------------|--------------------------|
--------------------------|--------------------------|
--------------------------|--7--7--7--x--7--x--x-----|
--8--8--8--8--8--8--8--8--|--7--7--7--x--7--x--x--7--|
--8--8--8--8--8--8--8--8--|--5--5--5--x--5--x--x--7--|
--6--6--6--6--6--6--6--6--|-----------------------5--|


  E  E  E  E  E  E  E  E     E  E  E  E  E  E  E  E   
--------------------------|--------------------------|
--------------------------|--------------------------|
--------------------------|--7--7--7--x--7--x--x--7--|
--L--7--7--7--7--7--7--7--|--7--7--7--x--7--x--x--7--|
--L--7--7--7--7--7--7--7--|--5--5--5--x--5--x--x--5--|
--L--5--5--5--5--5--5--5--|--------------------------|


  E  E  E  E  E  E  E  E     E  E  E  E  E  E  E  E   
--------------------------|--------------------------|
--------------------------|--------------------------|
--L--7--7--7--7--7--7--7--|--7--7--7--7--7--7--7--7--|
--L--7--7--7--7--7--7--7--|--7--7--7--7--7--7--7--7--|
--L--5--5--5--5--5--5--5--|--5--5--5--5--5--5--5--5--|
--------------------------|--------------------------|


  E  E  E  E  E  E  E  E     E  E  E  E  E  E  E  E   
--------------------------|--------------------------|
--------------------------|--------------------------|
--L--7--7--7--7--7--7--7--|-----------------------7--|
--L--7--7--7--7--7--7--7--|--5--5--5--5--5--5--5--7--|
--L--5--5--5--5--5--5--5--|--5--5--5--5--5--5--5--5--|
--------------------------|--3--3--3--3--3--3--3-----|


  E  E  E  E  E  E  E  E     E  E  E  E  E  E  E  E   
--------------------------|--------------------------|
--------------------------|--------------------------|
--L--7--7--7--7--7--7--7--|--7--7--7--7--7--7--7--7--|
--L--7--7--7--7--7--7--7--|--7--7--7--7--7--7--7--7--|
--L--5--5--5--5--5--5--5--|--5--5--5--5--5--5--5--5--|
--------------------------|--------------------------|


  E  E  E  E  E  E  E  E     E  E  E  E  E  E  E  E   
--------------------------|--------------------------|
--------------------------|--------------------------|
--L--7--7--7--7--7--7--7--|--------------------------|
--L--7--7--7--7--7--7--7--|--7--7--7--7--7--7--7--7--|
--L--5--5--5--5--5--5--5--|--7--7--7--7--7--7--7--7--|
--------------------------|--5--5--5--5--5--5--5--5--|


  E  E  E  E  E  E  E  E     E  E  E  E  E  E  E  E   
--------------------------|--------------------------|
--------------------------|--------------------------|
--------------------------|--7--7--7--7--7--7--7--7--|
--L--7--7--7--7--7--7--7--|--7--7--7--7--7--7--7--7--|
--L--7--7--7--7--7--7--7--|--5--5--5--5--5--5--5--5--|
--L--5--5--5--5--5--5--5--|--------------------------|


  E  E  E  E  E  E  E  E     E  E  E  E  E  E  E  E   
--------------------------|--------------------------|
--------------------------|--------------------------|
--L--7--7--7--7--7--7--7--|--------------------------|
--L--7--7--7--7--7--7--7--|--5--5--5--5--5--5--5--5--|
--L--5--5--5--5--5--5--5--|--5--5--5--5--5--5--5--5--|
--------------------------|--3--3--3--3--3--3--3--3--|


  E  E  E  E  E  E  E  E     E  E  E  E  E  E  E  E   
--------------------------|--------------------------|
--------------------------|--------------------------|
--------------------------|--7--7--7--7--7--7--7-----|
--8--8--8--8--8--8--8--8--|--7--7--7--7--7--7--7--7--|
--8--8--8--8--8--8--8--8--|--5--5--5--5--5--5--5--7--|
--6--6--6--6--6--6--6--6--|-----------------------5--|


  E  E  E  E  E  E  E  E     E  E  E  E  E  E  E  E   
--------------------------|--------------------------|
--------------------------|--------------------------|
--------------------------|--7--7--7--7--7--7--7--7--|
--L--7--7--7--7--7--7--7--|--7--7--7--7--7--7--7--7--|
--L--7--7--7--7--7--7--7--|--5--5--5--5--5--5--5--5--|
--L--5--5--5--5--5--5--5--|--------------------------|


  E  E  E  E  E  E  E  E     E  E  E  E  E  E  E  E   
--------------------------|--------------------------|
--------------------------|--------------------------|
--L--7--7--7--7--7--7--7--|--7--7--7--x--7--x--x-----|
--L--7--7--7--7--7--7--7--|--7--7--7--x--7--x--x--7--|
--L--5--5--5--5--5--5--5--|--5--5--5--x--5--x--x--7--|
--------------------------|-----------------------5--|


  E  E  E  E  E  E  E  E     E  E  E  E  E  E  E  E   
--------------------------|--------------------------|
--------------------------|--------------------------|
--------------------------|--7--7--7--x--7--x--x--7--|
--L--7--7--7--7--7--7--7--|--7--7--7--x--7--x--x--7--|
--L--7--7--7--7--7--7--7--|--5--5--5--x--5--x--x--5--|
--L--5--5--5--5--5--5--5--|--------------------------|


  E  E  E  E  E  E  E  E     E  E  E  E  E  E  E  E   
--------------------------|--------------------------|
--------------------------|--------------------------|
--L--7--7--7--7--7--7--7--|--7--7--7--x--7--x--x-----|
--L--7--7--7--7--7--7--7--|--7--7--7--x--7--x--x--7--|
--L--5--5--5--5--5--5--5--|--5--5--5--x--5--x--x--7--|
--------------------------|-----------------------5--|


  E  E  E  E  E  E  E  E     E  E  E  E  E  E  E  E     W                 
--------------------------|--------------------------|-------------------|
--------------------------|--------------------------|-------------------|
--------------------------|--------------------------|-------------------|
--L--7--7--7--7--7--7--7--|--5--5--5--5--5--5--5--5--|-------------------|
--L--7--7--7--7--7--7--7--|--5--5--5--5--5--5--5--5--|-------------------|
--L--5--5--5--5--5--5--5--|--3--3--3--3--3--3--3--3--|-------------------|


  Q    H.             
--------------------||
--------------------||
-------7------------||
-------7------------||
-------5------------||
--------------------||

Gtr.2                           


     W                   W                   W                 
E||-------------------|-------------------|-------------------|
B||-------------------|-------------------|-------------------|
G||-------------------|-------------------|-------------------|
D||-------------------|-------------------|-------------------|
A||-------------------|-------------------|-------------------|
E||-------------------|-------------------|-------------------|


  W                   W                   W                 
-------------------|-------------------|-------------------|
-------------------|-------------------|-------------------|
-------------------|-------------------|-------------------|
-------------------|-------------------|-------------------|
-------------------|-------------------|-------------------|
-------------------|-------------------|-------------------|


    W                   W                   W                 
|--------------------|-------------------|-------------------|
|--------------------|-------------------|-------------------|
|*-------------------|-------------------|-------------------|
|*-------------------|-------------------|-------------------|
|--------------------|-------------------|-------------------|
|--------------------|-------------------|-------------------|


  W                   W                   W                   W                 
-------------------|-------------------|-------------------|-------------------|
-------------------|-------------------|-------------------|-------------------|
-------------------|-------------------|-------------------|-------------------|
-------------------|-------------------|-------------------|-------------------|
-------------------|-------------------|-------------------|-------------------|
-------------------|-------------------|-------------------|-------------------|


  W                   W                   W                   W                 
-------------------|-------------------|-------------------|-------------------|
-------------------|-------------------|-------------------|-------------------|
-------------------|-------------------|-------------------|-------------------|
-------------------|-------------------|-------------------|-------------------|
-------------------|-------------------|-------------------|-------------------|
-------------------|-------------------|-------------------|-------------------|


  W                   W                   W                   W                 
-------------------|-------------------|-------------------|-------------------|
-------------------|-------------------|-------------------|-------------------|
-------------------|-------------------|-------------------|-------------------|
-------------------|-------------------|-------------------|-------------------|
-------------------|-------------------|-------------------|-------------------|
-------------------|-------------------|-------------------|-------------------|


  W                     W                   W                 
--------------------||-------------------|-------------------|
--------------------||-------------------|-------------------|
-------------------*||-------------------|-------------------|
-------------------*||-------------------|-------------------|
--------------------||-------------------|-------------------|
--------------------||-------------------|-------------------|


  W                   W                   W                   W                 
-------------------|-------------------|-------------------|-------------------|
-------------------|-------------------|-------------------|-------------------|
-------------------|-------------------|-------------------|-------------------|
-------------------|-------------------|-------------------|-------------------|
-------------------|-------------------|-------------------|-------------------|
-------------------|-------------------|-------------------|-------------------|


  W                   W                   W                   W                 
-------------------|-------------------|-------------------|-------------------|
-------------------|-------------------|-------------------|-------------------|
-------------------|-------------------|-------------------|-------------------|
-------------------|-------------------|-------------------|-------------------|
-------------------|-------------------|-------------------|-------------------|
-------------------|-------------------|-------------------|-------------------|


  W                   W                   W                   W                 
-------------------|-------------------|-------------------|-------------------|
-------------------|-------------------|-------------------|-------------------|
-------------------|-------------------|-------------------|-------------------|
-------------------|-------------------|-------------------|-------------------|
-------------------|-------------------|-------------------|-------------------|
-------------------|-------------------|-------------------|-------------------|


  W                   W                   W                   W                 
-------------------|-------------------|-------------------|-------------------|
-------------------|-------------------|-------------------|-------------------|
-------------------|-------------------|-------------------|-------------------|
-------------------|-------------------|-------------------|-------------------|
-------------------|-------------------|-------------------|-------------------|
-------------------|-------------------|-------------------|-------------------|


  W                   W                   W                   W                 
-------------------|-------------------|-------------------|-------------------|
-------------------|-------------------|-------------------|-------------------|
-------------------|-------------------|-------------------|-------------------|
-------------------|-------------------|-------------------|-------------------|
-------------------|-------------------|-------------------|-------------------|
-------------------|-------------------|-------------------|-------------------|


  W                   W                   W                   W                 
-------------------|-------------------|-------------------|-------------------|
-------------------|-------------------|-------------------|-------------------|
-------------------|-------------------|-------------------|-------------------|
-------------------|-------------------|-------------------|-------------------|
-------------------|-------------------|-------------------|-------------------|
-------------------|-------------------|-------------------|-------------------|


   Q     Q     E   E   E   E      Q     Q     E   E   E   E   
------------------------------|------------------------------|
--10----10--------------------|--10----10--------------------|
--10----10--------------------|--10----10--------10----------|
--------------12--10--12--12--|--------------12--10--12--12--|
------------------------------|------------------------------|
------------------------------|------------------------------|


   Q     E   Q.      E   E      E   E   E   Q     E   E   E   
----------------------------|----------------------------10--|
--12----12--10--------------|--------------12----10------10--|
--12----12--10--------------|------10------12----10----------|
--------------------12--10--|--12------12------------12------|
----------------------------|--------------------------------|
----------------------------|--------------------------------|


   E   E   E   E    E   E   E   E      E   E   E   E    E   E   E   E   
---L--10-----------------------10--|---L--10---------------------------|
---L--10------10---------------10--|---L--10------10-------------------|
----------12--10h--11--------------|----------12--10h--11--------------|
-----------------------12--12------|-----------------------12--12--12--|
-----------------------------------|-----------------------------------|
-----------------------------------|-----------------------------------|


   E   E   E   E   E   E   E   E     E  E  E  E  E  E  E  E   
----------------------------------|--------------------------|
----------------------------------|--8--8--8--8--8--8--8--8--|
----------------------------------|--9--9--9--9--9--9--9--9--|
--11--11--11--11--11--11--11--11--|--------------------------|
----------------------------------|--------------------------|
----------------------------------|--------------------------|


   E    E   E   E    E   E   E    E      E   E    E   E   E    E   E   E   
-------10--10-------10--10-------10--|--10-------10--10-------10--10------|
-------10--10-------10--10-------10--|--10-------10--10-------10--10------|
--12b----------12b----------12b------|------12b----------12b--------------|
-------------------------------------|--------------------------------12--|
-------------------------------------|------------------------------------|
-------------------------------------|------------------------------------|


   E   E   E   E   E   E   E   E      E   E   E   E   E   E   E   E   
----------------------10--10---x--|--10--10--10--10--10--10--10--10--|
--10--12--12----------12--12---x--|--11--11--11--11--11--11--11--10--|
--10--12--12------10--------------|----------------------------------|
--------------12------------------|----------------------------------|
----------------------------------|----------------------------------|
----------------------------------|----------------------------------|


   E   E   E   E   E    E   E   E      E    E   E   E    E   E   E    E   
---L--10---------------------------|-------10--10-------10--10-------10--|
---L--10----------10---------------|-------10--10-------10--10-------10--|
----------12--12--10h--11------10--|--12b----------12b----------12b------|
---------------------------12------|-------------------------------------|
-----------------------------------|-------------------------------------|
-----------------------------------|-------------------------------------|


   E   E   E   E    E   E   E   E      E    Q     Q     Q    E   
--10--10---------------------------|----------------------------|
--10--10------10-------------------|----------------------------|
----------12--10h--11--------------|----------------------------|
-----------------------12--12--12--|---Ls--10s----9s----7-------|
-----------------------------------|----------------------------|
-----------------------------------|----------------------------|


  W                   W                   W                   W                 
-------------------|-------------------|-------------------|-------------------|
-------------------|-------------------|-------------------|-------------------|
-------------------|-------------------|-------------------|-------------------|
-------------------|-------------------|-------------------|-------------------|
-------------------|-------------------|-------------------|-------------------|
-------------------|-------------------|-------------------|-------------------|


  W                   W                   W                   W                 
-------------------|-------------------|-------------------|-------------------|
-------------------|-------------------|-------------------|-------------------|
-------------------|-------------------|-------------------|-------------------|
-------------------|-------------------|-------------------|-------------------|
-------------------|-------------------|-------------------|-------------------|
-------------------|-------------------|-------------------|-------------------|


  W                  
-------------------||
-------------------||
-------------------||
-------------------||
-------------------||
-------------------||




Duration Legend
---------------
W - whole
H - half
Q - quarter
E - 8th
S - 16th
T - 32nd
X - 64th
. - note dotted
|-n-|  - n-tuplets


Tablature Legend
----------------
L - tied note
x - dead note
g - grace note
(n) - ghost note
> - accentuded note
NH - natural harmonic
AH - artificial harmonic
TH - tapped harmonic
SH - semi harmonic
PH - pitch harmonic
h - hammer on
p - pull off
b - bend
br - bendRelease
pb - preBend
pbr - preBendRelease
brb - bendReleaseBend
\n/ - tremolo bar dip
\n - tremolo bar dive
-/n - tremolo bar Release up
/n\ - tremolo bar inverted dip
/n - tremolo bar return
-\n - tremolo bar Release down
S - shift slide
s - legato slide
/ -  slide into from below or out of upwards
\ -  slide into from above or out of downwards
~ - vibrato
W - wide vibrato
tr - trill
TP - tremolo picking
T - tapping
S - slap
P - pop
< - fade in
^ - brush up
v - brush down





Comments


Popular Hurriganes tabs & chords
I Will Stay Chords
Mister X Chords
Bourbon Street Tabs
Cozyrow Tabs
Desiree Tabs
Keep On Knocking 1 Tabs
Lipstick-man Tabs
Mary Jane Tabs
Tallahassee Lassie Tabs
I Will Stay Ukulele


Song lyrics



↑ Back to top | Tablatures and chords are parodies/interpretations of the original songs. You may use it for private study, scholarship, research or language learning purposes only
© 2014 AZChords.com Contact us | Privacy policy | DMCA | Add/correct tabs | Request tabs | Top 50 tabs