» » »

In The Nude Tabs (ver.2)

Artists:  A B C D E F G H I J K L M N O P Q R S T U V W X Y Z # 

In The Nude Tabs (ver.2)

Hurriganes
Rating:
3/5 (1 vote)

Hard to play? Try these video lessons and learn fast.
                
                           C
e----------------------   ---------------------------------|
H--------------0-1-----   ------1-----1-----1-----1--1--1--|
G--------1-2-3---------   ----0-----0-----0-----0----------|
D--5-4-5---------------   --2-----2-----2-----2------------|
A------------------3---   ---------------------------------|
E----------------------   ---------------------------------|
  F
e--------------------------------------------------|
H------1-----1-----1-----1--1--1-------------------|
G----2-----2-----2-----2---------------------------|
D--3-----3-----3-----3-----------------------------|
A--------------------------------------------------|
E--------------------------------------------------|
  G
e----------------------------------   ------------------------------0-------|
H-------3-----3-----3-----3--3--3--   --------------0-1-1-0-1-2-3-4---------|
G-----4-----4-----4-----4----------   --------1-2-3-------------------------|
D---5-----5-----5-----5------------   --5-4-5-------------------------------|
A----------------------------------   --------------------------------------|
E----------------------------------   --------------------------------------|

e-1---1-(1)---1--/5-3-1---1-------|
H---3-------3----/5-----3---------|
G---------------------------------|
D---------------------------------|
A---------------------------------|
E---------------------------------| ...
            
Hard to play? Try these video lessons and learn fast. | Correct




comments powered by Disqus
↑ Back to top | Tablatures and chords are parodies/interpretations of the original songs. You may use it for private study, scholarship, research or language learning purposes only