>
 >
Get On 1

Get On 1 Guitar Tabs

Hurriganes - Get On 1 chords, tabs, tablatures, lyrics

Guitar lessons | Add/correct | Request | Top 50 tabs Artists:  A B C D E F G H I J K L M N O P Q R S T U V W X Y Z 0-9

Get On 1 Guitar Tabs – Hurriganes

CD, Sheet music, Poster

Do you like Get On 1? Share with your friends now
ChordsTabsTabs v2Ukulele


e||--8--8--8--8--8--8--8--8----8----------------------------|
B||--8--8--8--8--8--8--8--8----8--11--10--8--10--8----------|
G||-------------------------------11--10--8--10--8--10------|
D||-------------------------------------------------10------|
A||-----------------------------------------------------10--|
E||---------------------------------------------------------|
                                                              
e------------------------------------11------------------------|
B---------8------10p8-----8------------------------------------|
G---------8------10p8-----8--10b---------10r-8--10--8----------|
D--8h-10-----10-------10-------------------------------10------|
A----------------------------------------------------------10--|
E--------------------------------------------------------------|


Guitar Solo

------------------------8~-------------------------------------------|
------------8--10--8------------------10--8-----------------------8--|
-----------------------------------------------8~------------8-------|
------------------------------------------------------8--10----------|
---------------------------------------------------------------------|
---------------------------------------------------------------------|


                                                      
---------------------------------8----8-------------|
------------------------------8-------8------10--8--|
--8-------------------8--9--------------------------|
-------10------8h-10--------------------------------|
-----------10---------------------------------------|
----------------------------------------------------|


                                                                      
--11--11--11--11--11--11--11--11----11--11--11--11--11--11--11--11--|
--10--10--10--10--10--10--10--10----10--10--10--10--10--10--10--10--|
--------------------------------------------------------------------|
--------------------------------------------------------------------|
--------------------------------------------------------------------|
--------------------------------------------------------------------|


                                                         
--11----8------8--------------------8---8----8---------|
--10-------10-----8--10----------8--10--8----8--10--8--|
-------------------------9----9------------------------|
-------------------------------------------------------|
-------------------------------------------------------|
-------------------------------------------------------|


                                                              
--11------------11--------------11------------11------------|
--10----8--10/8-10----8--10/8---10----8--10/8-10----8--10/8-|
------------------------------------------------------------|
------------------------------------------------------------|
------------------------------------------------------------|
------------------------------------------------------------|


                                                       
--11------------11--------------11-------11~---------|
--10----8--10/8-10----8--10/8---10----8--10~---------|
-----------------------------------------------------|
-----------------------------------------------------|
-----------------------------------------------------|
-----------------------------------------------------|


                                                        
------8--8------8~-------8----8~-------8~-------8--8--|
--10--------10-------10------------10-------10--------|
------------------------------------------------------|
------------------------------------------------------|
------------------------------------------------------|
------------------------------------------------------|


                                                            
--------8------8~-------8------8--11--13--14--15--14--13--|
--10-------10-------10------------------------------------|
----------------------------------------------------------|
----------------------------------------------------------|
----------------------------------------------------------|
----------------------------------------------------------|


                                                      
--11--8--8------8--------8----8--8--8--8--8--8------|
------------10-------10--8----8--8--8--8--8--8------|
----------------------------------------------------|
----------------------------------------------------|
----------------------------------------------------|
----------------------------------------------------|


                                                             
-----------------------------------------------------------|
--11--11--10--10--8---------10--------8--------------8--8--|
--12--12--10--10--8--9------10--------8--9--------8--9--9--|
------------------------10--------10--------10-------------|
-----------------------------------------------------------|
-----------------------------------------------------------|


                                                              
------------------------------------------------------------|
--11--11----11----11--11--11----11--11----11----11--11--11--|
--12--12----12----12--12--12----12--12----12----12--12--12--|
------------------------------------------------------------|
------------------------------------------------------------|
------------------------------------------------------------|


                                                                        
---------------------------------------------------------------------|
--8------------------------------------------------------------------|
-------8--10--8---------------------8--------------------------------|
-------------------10--10----8--10-----------------------------------|
---------------------------------------10----------------------------|
---------------------------------------------------------------------|




No im not copy anything!!!





Comments


Popular Hurriganes tabs & chords
My Only One 4 Bass Tabs
My Only One Chords
I Will Stay 3 Tabs
Jailbait Stalemate Tabs
Made In Sweden Tabs
Oh Baby Doll Tabs
Saigon Shakes Tabs
Walkin The Dog Tabs
Woo-oo-oo-oo-o Live Tabs
Get On Ukulele


Song lyrics



↑ Back to top | Tablatures and chords are parodies/interpretations of the original songs. You may use it for private study, scholarship, research or language learning purposes only
© 2014 AZChords.com Contact us | Privacy policy | DMCA | Add/correct tabs | Request tabs | Top 50 tabs