» » »

Hollerado, Juliette Tabs (ver.2)

Artists:  A B C D E F G H I J K L M N O P Q R S T U V W X Y Z # 

Juliette Tabs (ver.2)

Hollerado Tabs
Rating:
0/5 (0 votes)
Juliette lessons Tabs too difficult? Try these video lessons and learn fast
                (Intro)
The Intro is also the chorus and the second part is the verse. But I think the chorus is 
to be palm muted. Not too sure.This isn't the whole song though, not yet.


Chorus
e|-------------------------------|--------------------|
B|-------------------------------|--------------------|
G|-------------------------------|--------------------|
D|--7------4----------------2-2--|--4--------22-------|
A|--5------2--------2-------0-0--|--2-----2--00-------|
E|------------------0------------|--------0-----------|


e|-------------------------------|--------------------|
B|-------------------------------|--------------------|
G|-------------------------------|--------------------|
D|--7------4----------------2-2--|-----2---4----------|
A|--5------2--------2-------0-0--|-4---0---2---4-2-2--|
E|------------------0------------|-2-----------2-0-0--|

Verse
e|----------------------------------------------------|
B|----------------------------------------------------|
G|---------------------------------------------------.|
D|------2---------2---------4-------22---------------.|
A|-0000-0--000000-0--000000-2--0000-00----------------|
E|----------------------------------------------------|
            

comments powered by Disqus
↑ Back to top | Hollerado Tabs for Juliette. Lyrics for acoustic guitar and electric guitar. Tablatures and chords are parodies/interpretations of the original songs. You may use it for private study, scholarship, research or language learning purposes only