» » »

Juliette Bass tabs (ver.2)

Artists:  A B C D E F G H I J K L M N O P Q R S T U V W X Y Z # 

Juliette Bass tabs (ver.2)

Hollerado
Rating:
0/5 (0 votes)

Hard to play? Try these video lessons and learn fast.
                
Chorus -(6s)
G |-----------------------------------------|
D |-----------------------------------------| Chorus x2
A |-5-2--------2------5-2------------2------| 
E |-----2-5-5----2-55-----2-5-5--2-5---2-00-|

Buy her a gold fish she named it after me...(36-37s)

G |-----------------------------------------|
D |-----------------------------------------| Verse 1 x1
A |-2-2--------2--------2-2-----------------|
E |-----5-5--------55-------5-5--------2-00-|

Son you got so much to learn...(45s)

G |-----------------------------------------|
D |-----------------------------------------| Chorus x2
A |-5-2--------2------5-2------------2------|
E |-----2-5-5----2-55-----2-5-5--2-5---2-00-|

smoking her last cigerette...(1:03)
G |-------------------------------------------------------|
D |-------------------------------------------------------| Bridge x1
A |-5-5-5-5-4-4---5-5-5-5-4-----5-5-5-5-4-4---2-2-2-2-4---|
E |-------------------------5---------------------------5-|

Just as this starts: Three is tea time(1:11)

G |-------------------------------------------------------|
D |-------------------------------------------------------| Verse 2 x2
A |-9-7---7---9-9-9-7--------9-7---7----------------------|
E |-----7---5---------9-7-5------7---5--7-7-7-9-2-0-0-----|

Then she says its time for bed...(1:28)

G |-----------------------------------------|
D |-----------------------------------------| Chorus x2
A |-5-2--------2------5-2------------2------|
E |-----2-5-5----2-55-----2-5-5--2-5---2-00-|

(1:46)

G |-------------------------------------------------------|
D |-------------------------------------------------------| Bridge x1
A |-5-5-5-5-4-4---5-5-5-5-4-----5-5-5-5-4-4---2-2-2-2-4---|
E |-------------------------5---------------------------5-|

G |-------------------------------------------------------|
D |-------------------------------------------------------|
A |-5-5-5-5-4-4---5-5-5-5-4-----5-5-5-5-4-4---2-2-2-2-----|
E |-------------------------5-------------------------5-2-|
                                                            Breakdown x1
G |-------------------------------------------------------|
D |-----------6-7-----0-4-------------6-7-6---6-----------|
A |-------5-9-----7---------------5-9-------9---9-7-------|
E |-5-7-9-----------9-----4-5-7-9-------------------------|

G |-----------------------------------------|
D |-----------------------------------------| Chorus x4
A |-5-2--------2------5-2------------2------|
E |-----2-5-5----2-55-----2-5-5--2-5---2-00-|

G |-------------------------------------------------------|
D |-------------------------------------------------------| Ending x1
A |-5-5-5-5-4-4---5-5-5-5-4-----5-5-5-5-4-4---2-2-2-2-4---|
E |-------------------------5---------------------------2-|
            
Hard to play? Try these video lessons and learn fast. | Correct




comments powered by Disqus
↑ Back to top | Tablatures and chords are parodies/interpretations of the original songs. You may use it for private study, scholarship, research or language learning purposes only