>
 >
Juliette

Juliette Guitar Tabs

Hollerado - Juliette chords, tabs, tablatures, lyrics

Guitar lessons | Add/correct | Request | Top 50 tabs Artists:  A B C D E F G H I J K L M N O P Q R S T U V W X Y Z 0-9

Juliette Guitar Tabs – Hollerado

CD, Sheet music, Poster

Do you like Juliette? Share with your friends now
Bass TabsBass Tabs v2Bass Tabs v3TabsTabs v2Tabs v3Tabs v4Tabs v5
----------------------------------------------------------------------------
----------------------------------------------------------------------------
Tuning: Standard

Intro (Also Chorus):
e|-x-x-----x-x--------x-x-x---x-x--------| ----------\
B|-x-x-----x-x---2--2-x-x-x---x-x---2--2-|            \
G|-x-x-7-4-x-x---2--2-x-x-x-4-x-x---2--2-|             \
D|-x-x-7-4-x-x-4-2--2-x-x-x-4-x-x-4-2--2-|            Play twice
A|-x-x-5-2-x-x-4-0--0-x-x-x-2-x-x-4-0--0-|       (Guitar 2 comes in on the
E|-x-x-----x-x-2------x-x-x---x-x-2------|        second time with full D &
                                                  E Chords instead of power)
e|-x-x-----x-x------------------------|                /
B|-x-x-----x-x---2--2-----2-----------|               /
G|-x-x-7-4-x-x---2--2-----2-4---------|              /
D|-x-x-7-4-x-x-4-2--2-3/5-2-4-4-4-2-2-|             /
A|-x-x-5-2-x-x-4-0--0-3/5-0-2-4-4-2-2-|            /
E|-x-x-----x-x-2------1/3-----2-2-0-0-| ----------/

Verse:
e|-x-x-x-x---x-x-x-x-x-x---x-x-x-x-x-x---x-x-x-x-----|\
B|-x-x-x-x---x-x-x-x-x-x-2-x-x-x-x-x-x---x-x-x-x-2-2-| \
G|-x-x-x-x-4-x-x-x-x-x-x-2-x-x-x-x-x-x-4-x-x-x-x-2-2-|  \
D|-x-x-x-x-4-x-x-x-x-x-x-2-x-x-x-x-x-x-4-x-x-x-x-2-2-|  / x3
A|-x-x-x-x-2-x-x-x-x-x-x-0-x-x-x-x-x-x-2-x-x-x-x-0-0-| /
E|-x-x-x-x---x-x-x-x-x-x---x-x-x-x-x-x---x-x-x-x-----|/

e|-x-x-x-x---x-x-x-x-x-x---x-x-x-x-x-x---x-x-x-x-----|
B|-x-x-x-x---x-x-x-x-x-x-2-x-x-x-x-x-x---x-x-x-x-2-2-|
G|-x-x-x-x-4-x-x-x-x-x-x-2-x-x-x-x-x-x---x-x-x-x-2-2-|
D|-x-x-x-x-4-x-x-x-x-x-x-2-x-x-x-x-x-x-4-x-x-x-x-2-2-|
A|-x-x-x-x-2-x-x-x-x-x-x-0-x-x-x-x-x-x-4-x-x-x-x-0-0-|
E|-x-x-x-x---x-x-x-x-x-x---x-x-x-x-x-x-2-x-x-x-x-----|

Chorus

"Next Part":
e|-2-2-2-2-------------------2-2-2-2-----------------------|
B|-3-3-3-3-2-2----------2-2--3-3-3-3-2-2------------0-2----|
G|-2-2-2-2-2-2--4-4-4-4-2-2--2-2-2-2-2-2--4-4-4-4-4-0-2----|
D|-0-0-0-0-2-2--4-4-4-4-2-2--0-0-0-0-2-2--4-4-4-4-4-0-2----|
A|---------0-0--2-2-2-2-0-0----------0-0--2-2-2-2-2-0-0----|
E|---------------------------------------------------------|

Guitar 2:
e|------------------------------------------------------|
B|------------------------------------------------------|
G|-7-7-7-7-6-6---7-7-7-7-6-----7-7-7-7-6-6----------6---|
D|-------------------------7----------------9-9-9-9---7-|
A|------------------------------------------------------|
E|------------------------------------------------------|

Verse
Chorus
"Next Part" x2

Bridge: (Now this part ain't great but i tried my best)
e|-2-2-------2-2-------2-2--------------|
B|-3-3--2-2--3-3--2-2--3-3--2-2---------|
G|-2-2--2-2--2-2--2-2--2-2--2-2--4----2-|
D|-0-0--2-2--0-0--2-2--0-0--2-2---4--2--|
A|------0-0-------0-0-------0-0-2---0---|
E|--------------------------------------|

Chorus x2
"Next Part" x2
THE END

*ALSO*
on the verses and the "we ate ice cream..." part, guitar 2 plays:
   * * * * * * * *
A|-5-5-5-5-5-5-5-5-| until chorus, its essentially straight eighths, just palm muted.





Comments


Popular Hollerado tabs & chords
Juliette Bass Tabs
Juliette 3 Bass Tabs
Lonesome George Chords
So It Goes Chords
Desire 126 Tabs
Good Day At The Races Tabs
Juliette 2 Tabs
Juliette 5 Tabs
Juliette Intro Tabs
On My Own Tabs


Song lyrics



↑ Back to top | Tablatures and chords are parodies/interpretations of the original songs. You may use it for private study, scholarship, research or language learning purposes only
© 2014 AZChords.com Contact us | Privacy policy | DMCA | Add/correct tabs | Request tabs | Top 50 tabs