» » »

Juliette Bass tabs (ver.1)

Artists:  A B C D E F G H I J K L M N O P Q R S T U V W X Y Z # 

Juliette Bass tabs (ver.1)

Hollerado
Rating:
5/5 (2 votes)

Hard to play? Try these video lessons and learn fast.
                Chorus:
G |-----------------------------------------|
D |-----------------------------------------|
A |-5-2--------2------5-2------------2------|
E |-----2-5-5----2-55-----2-5-5--2-5---2-00-|

Verse 1:
G |-----------------------------------------|
D |-----------------------------------------|
A |-2-2--------2--------2-2-----------------|
E |-----5-5--------55-------5-5--------2-00-|
These are palm muted.

Bridge:
G |-------------------------------------------------------|
D |-------------------------------------------------------|
A |-5-5-5-5-4-4---5-5-5-5-4-----5-5-5-5-4-4---2-2-2-2-4---|
E |-------------------------5---------------------------5-|

Verse 2:
G |-------------------------------------------------------|
D |-------------------------------------------------------|
A |-9-7---7---9-9-9-7--------9-7---7----------------------|
E |-----7---5---------9-7-5------7---5--7-7-7-9-2-0-0-----|

Breakdown:
G |-------------------------------------------------------|
D |-------------------------------------------------------|
A |-5-5-5-5-4-4---5-5-5-5-4-----5-5-5-5-4-4---2-2-2-2-----|
E |-------------------------5-------------------------5-2-|

G |-------------------------------------------------------|
D |-----------6-7-----0-4-------------6-7-6---6-----------|
A |-------5-9-----7---------------5-9-------9---9-7-------|
E |-5-7-9-----------9-----4-5-7-9-------------------------|

Ending:
G |-------------------------------------------------------|
D |-------------------------------------------------------|
A |-5-5-5-5-4-4---5-5-5-5-4-----5-5-5-5-4-4---2-2-2-2-4---|
E |-------------------------5---------------------------2-|

Order:
Chorus ---------------- 1x
Verse 1 --------------- 1x
Chorus ---------------- 2x
Bridge ---------------- 1x
Verse 2 --------------- 2x
Chorus ---------------- 2x
Bridge ---------------- 1x
Breakdown ------------- 1x
Chorus ---------------- 2x
Bridge --- ------------ 1x
Ending ---------------- 1x
            
Hard to play? Try these video lessons and learn fast. | Correct




comments powered by Disqus
↑ Back to top | Tablatures and chords are parodies/interpretations of the original songs. You may use it for private study, scholarship, research or language learning purposes only