» » »

H.I.M, Your Sweet Tabs (ver.1)

Artists:  A B C D E F G H I J K L M N O P Q R S T U V W X Y Z # 

Your Sweet Tabs (ver.1)

H.I.M Tabs
 Rating:
4/5 (4 votes)
Your Sweet lessons Tabs too difficult? Try these video lessons and learn fast
1
                "(6)
||: INTRO :||
  -------
  -------
  -------
  -------
  54---2-
  ---5---



||: FILL 1 :||
-----------------------------------------------------
-----------------------------------------------------
4--4--4--4-4---------------4--4--4--4-4--------------
4--4--4--4-4---5-5-5--4-4--4--4--4--4-4---5-5-5--4-4-
2--2--2--2-2---5-5-5--4-4--2--2--2--2-2---5-5-5--4-4-
---------------3-3-3--2-2-----------------3-3-3--2-2-


------------------------------------------------------
------------------------------------------------------
-4--4--4--4-4---------------4--4--4--4-4--4-4-4-4-4-2-
-4--4--4--4-4---5-5-5--4-4--4--4--4--4-4--4-4-4-4-4-2-
-2--2--2--2-2---5-5-5--4-4--2--2--2--2-2--2-2-2-2-2-0-
----------------3-3-3--2-2----------------------------


||: VERSE :||
----------------7-7-7-7-7-7-7-7---------------------------------
5-5-5-5-5-5-5-5-5-5-5-5-5-5-5-5-4-4-4-4-4-4-4-4-4-4-4-4-4-4-4-4-
3-3-3-3-3-3-3-3-----------------2-2-2-2-2-2-2-2-2-2-2-2-2-2-2-2-

----------------7-7-7-7-7-7-7-7-----------------------------------------0-----
5-5-5-5-5-5-5-5-5-5-5-5-5-5-5-5-4-4-4-4-4-4-4-4-4-4-4-4-4-4-4-4-------4---4---
3-3-3-3-3-3-3-3-----------------2-2-2-2-2-2-2-2-2-2-2-2-2-2-2-2-2-2-2-------3-

----------------7-7-7-7-7-7-7-7---------------------------------------
5-5-5-5-5-5-5-5-5-5-5-5-5-5-5-5-4-4-4-4-4-4-4-4-4-4-4-4-4-4-4-4--4~~~-
3-3-3-3-3-3-3-3-----------------2-2-2-2-2-2-2-2-2-2-2-2-2-2-2-2--2~~~-



||: CHORUS 1 :||
--------------------------------------------------------------
--------------------------------------------------------------
--------------------------------------------------------------
----4-4/5-4-----4-4/5-4-----4-4/5-4-----4-4/5-4-----4-4/5-4---
2-2---------5-----------5-------------------------------------
------------------------------------5-----------3-----------3-  ( cont. below)

---------------------------------
---------------------------------
---------------------------------
--4-4/5-4----4-4/5-4----4--------
--------------------------54---2-
---------3----------5--------5---


--------------------------------------------------------------
--------------------------------------------------------------
--------------------------------------------------------------
----4-4/5-4-----4-4/5-4-----4-4/5-4-----4-4/5-4-----4-4/5-4---
2-2---------5-----------5-------------------------------------
------------------------------------5-----------3-----------3-   (cont. below)

-------------------------------------
-------------------------------------
--------------------------------4~~~-
---4-4/5-4----4-4/5-4----4------4~~~-
---------------------------54---2~~~-
----------3----------5--------5------


||: fill 3 :||
---------------------------------
---------------------------------
---------------------------------
---------------------------------
-4-4-4-4-4-4-4-4-4-4-4-4-4-4-4-4-
-2-2-2-2-2-2-2-2-2-2-2-2-2-2-2-2-


||: CHORUS 2 :||
----6-6/7-6-----6-6/7-6-----6-6/7-6-----6-6/7-6-----6-6/7-6--6--------
4-4---------7-----------7--------------------------------------76---4-
------------------------------------7-----------5----------5------7---

||: CHORUS 2 part 2 :||
-----------------------
-----------------------
-----------------------
-6-6/7-6-----6-6/7-6---
-----------------------
---------7-----------5-

||: ENDING :||
  ---------
  ---------
  ---------
  4-54---2-
  -----5---


    ||: ORDER : ||
	Intro
	Fill 1
	Verse
	Chorus 1
	Fill 1
	Verse
	chorus 1
	Fill 1
	Fill 3
	Chorus 2 
	Chorus 2
	Chorus 2
	Chorus 2
	Chorus 2 part 2 ( till the end)
	Ending
"            
Submit corrections

comments powered by Disqus
↑ Back to top | H.I.M Tabs for Your Sweet. Lyrics for acoustic guitar and electric guitar. 1 Tablatures and chords are parodies/interpretations of the original songs. You may use it for private study, scholarship, research or language learning purposes only