» » »

Your Sweet Tabs (ver.3)

Artists:  A B C D E F G H I J K L M N O P Q R S T U V W X Y Z # 

Your Sweet Tabs (ver.3)

H.I.M
Rating:
0/5 (0 votes)

Hard to play? Try these video lessons and learn fast.
                "(6)
HIM- Your Sweet 666

Intro
|---------------------------|
|---------------------------|
|---------------------------|
|---------------------------|
|---------------------------|
|-10--9--5--7---------------|

|----------------------------------------------------------------|
|----------------------------------------------------------------|
|----------------------------------------------------------------|
|--9--5--4--9--5--4--9--5--4--9--9--7--5-------------------------|
|--9--5--4--9--5--4--9--5--4--9--9--7--5-------------------------|
|--7--3--2--7--3--2--7--3--2--7--7--5--3-------------------------|

Verse 1
|--------------------------------------------------------------|
|--------------------------------------------------------------|
|--------------------------------------------------------------|
|------------------4--4--4-------------------------------------|
|------------------4--4--4-------------------------------------|
|--10--9--5--3-----2--2--2-------------------------------------|

Chorus
|------------------------------------------------------------------|
|------------------------------------------------------------------|
|------7-------------------7---------------------------------------|
|--9---7---7---5---7---9---7---7---5---7-~-------------------------|
|--9---5---7---5---7---9---5---7---5---7-~-------------------------|
|--7-------5---3---5---7-------5---3---5-~-------------------------|

Play this after the Chorus
|--------------------------------------|
|--------------------------------------|
|--------------------------------------|
|--------------------------------------|
|--------------------------------------|
|--10--9--5--7-------------------------|

|----------------------------------------------------------------|
|----------------------------------------------------------------|
|----------------------------------------------------------------|
|--9--5--4--9--5--4--9--5--4--9--9--7--5-------------------------|
|--9--5--4--9--5--4--9--5--4--9--9--7--5-------------------------|
|--7--3--2--7--3--2--7--3--2--7--7--5--3-------------------------|

Verse 2
|--------------------------------------------------------------|
|--------------------------------------------------------------|
|--------------------------------------------------------------|
|------------------4--4--4-------------------------------------|
|------------------4--4--4-------------------------------------|
|--10--9--5--3-----2--2--2-------------------------------------|

|--------------------------------|
|--------------------------------|
|--------------------------------|
|--4--4-~------------------------|
|--4--4-~------------------------|
|--2--2-~------------------------|

Chorus
|----------------------------------------|
|----------------------------------------|
|----------------------------------------|
|--11--9--9--7--9--11--------------------|  x 4
|--11--9--9--7--9--11--------------------|
|---9--7--7--5--7---9--------------------|

End
|-----------------------------------------------------------------|
|-----------------------------------------------------------------|
|-----------------------------------------------------------------|
|--9--7--9--7--9--7--9--11-~--------------------------------------|
|--9--7--9--7--9--7--9--11-~--------------------------------------|
|--7--5--7--5--7--5--7---9-~--------------------------------------|
enjoy x
"            
Hard to play? Try these video lessons and learn fast. | Correct




comments powered by Disqus
↑ Back to top | Tablatures and chords are parodies/interpretations of the original songs. You may use it for private study, scholarship, research or language learning purposes only