» » »

Your Sweet Tabs (ver.2)

Artists:  A B C D E F G H I J K L M N O P Q R S T U V W X Y Z # 

Your Sweet Tabs (ver.2)

H.I.M
Rating:
0/5 (0 votes)

Hard to play? Try these video lessons and learn fast.
                "(6)
Intro
e|-------|
h|-------|
g|-------|
D|-------|
A|-5-4-0-|
E|-------|

e|--------------------------------|
h|--------------------------------|
g|-4---4-4---4--------------------|
D|-4---4-4---4-5---5-5--4---4-----|
A|-2---2-2---2-5---5-5--4---4-----|
E|-------------3---3-3--2---2-----|


just before the verse play
e|----------------|
h|----------------|
g|-4-4-4-4-4-2----|
D|-4-4-4-4-4-2----|
A|-2-2-2-2-2-0----|
E|----------------|
P.M.:  |-------|

  Verse

e|-------------------------------------------------|
B|-------------------------------------------------|
G|-----------------7-7-7-7-7-7-7-7-----------------|
D|-5-5-5-5-5-5-5-5-7-7-7-7-7-7-7-7-4-4-4-4-4-4-4-4-|
A|-5-5-5-5-5-5-5-5-5-5-5-5-5-5-5-5-4-4-4-4-4-4-4-4-|
E|-3-3-3-3-3-3-3-3-----------------2-2-2-2-2-2-2-2-|
P.M.:|--------------------------------------------|  

Chorus
e|--------------------------------------------------------------------|
h|--------------------------------------------------------------------|
g|-4---------------4--------------------------------------------------|
D|-4-----4---5---4-4-----4---5---4-------4---5-5-4-------4---5-5-4----|
A|-2---2---2-------2---2---2-------5---5---5-------0---0---0----------|
E|--------------------------------------------------------------------|
PM   |-| |-|         |-| |-|         |-|          |-|


e|--------------------------------------------------------------------|
h|--------------------------------------------------------------------|
g|--------------------------------------------------------------------|
D|-------4---5-5-4--------4---5-5-4--------4--5-5-4---------4---------|
A|----------------------------------------------------0---0---0-5-4-0-|
E|-3---3---3-------3---3----3--------3---3---3------------------------|
PM   |-||-|      |-||-|      |-||-|            |-----|

After the vocal part play this

e|--------------------------------------------------------------------|
h|--------------------------------------------------------------------|
g|-6---------------6--------------------------------------------------|
D|-6-----6---7---6-6-----6---7---6-------6---7-7-6-------6---7-7-6----|
A|-4---4---4-------4---4---4-------7---7---7--------------------------|
E|-------------------------------------------------7---7---7----------|
PM   |-| |-|         |-| |-|         |-|          |-|


e|---------------------------------|
h|---------------------------------|
g|---------------------------9-8---|
D|-------6---7-7-6-------6---9-8-9-|
A|---------------------------7-6-9-|
E|-5---5---5-------7---7---7-----7-|
PM   |-||-|           |-||-------|


e|---------------------------------|
h|---------------------------------|
g|---------------------------------|
D|-------6---7-7-6-------6---7-7-6-|
A|---------------------------------|
E|-5---5---5-------7---7---7-------|
PM   |-||-|           |-||-------|

e|---------------------------------|
h|---------------------------------|
g|---------------------------9-8---|
D|-------6---7-7-6-------6---9-8-9-|
A|---------------------------7-6-9-|
E|-5---5---5-------7---7---7-----7-|
"            
Hard to play? Try these video lessons and learn fast. | Correct




comments powered by Disqus
↑ Back to top | Tablatures and chords are parodies/interpretations of the original songs. You may use it for private study, scholarship, research or language learning purposes only