» » »

Join Me (In Death) Tabs (ver.1)

Artists:  A B C D E F G H I J K L M N O P Q R S T U V W X Y Z # 

Join Me (In Death) Tabs (ver.1)

H.I.M
Rating:
0/5 (0 votes)

Hard to play? Try these video lessons and learn fast.
                Him
Join me in death
 

Intro (if you want you can play the chords above the tab-line) :

  
    E                C#m              Abm             (Repeat 3 times)
 e:--------2--4----|----------------|----------------|----------------|
 B:*---------------|--------4--5----|-----------0----|---------------*|
 G:-----4----------|----------------|----------------|----------------|
 D:--2-------------|-----6----------|--------8-------|----------------|
 A:*---------------|--4-------------|-----6----------|---------------*|
 E:----------------|----------------|--4-------------|----------------|

    E                F#
 e:--------2--4----|--------4--6----|
 B:----------------|----------------|
 G:-----4----------|-----6----------|
 D:--2-------------|--4-------------|
 A:----------------|----------------|
 E:----------------|----------------|


 Verse:

  |*  Ab-   |   Eb-   |   Ab-   |   Eb-   |
 
  |   Ab-   |   Eb-   |   C#-   |   F#   *| (Repeat)


 Chorus:

  |*  E     |   C#-   |   Ab-   |   Ab-  *| (Repeat 3 times)

  |   E     |   F#    |   Ab-   |   Ab-   |

        

 Chords used:
   E:022100
 C#-:x46654
 Ab-:466444
  F#:244122 
 Eb-:x68876
            
Hard to play? Try these video lessons and learn fast. | Correct




comments powered by Disqus
↑ Back to top | Tablatures and chords are parodies/interpretations of the original songs. You may use it for private study, scholarship, research or language learning purposes only