» » »

Poison Girl Chords (ver.1)

Artists:  A B C D E F G H I J K L M N O P Q R S T U V W X Y Z # 

Poison Girl Chords (ver.1)

H.I.M
Rating:
0/5 (0 votes)

Hard to play? Try these video lessons and learn fast.
                

Intro  :

F#m  Bm  D5  A5  Bm

Chorus :

F#m  Bm  D5  A5  Bm


Riff a)

e|-------------------------------------|
b|-----2-------------------------------|
g|--2-----4-2-1------------------------|
d|---------------4-2-------------------|
a|--------------------4-2-0------------|
E|---------------------------4-2-------|


Outro :

F#m  Bm  D5  A5  Bm


Chords used :

   F#m   Bm   D5    A5

e|--2----7------------------------------|
b|--2----7------------------------------|
g|--2----7----7-------------------------|
d|--4----9----7----7--------------------|
a|--4----9----5----7--------------------|
E|--2----7---------5--------------------|


It¦s a very simpel song!
Questions or improvements are welcome !

Thanks !
Have a nice day !!!
            
Hard to play? Try these video lessons and learn fast. | Correct




comments powered by Disqus
↑ Back to top | Tablatures and chords are parodies/interpretations of the original songs. You may use it for private study, scholarship, research or language learning purposes only