» » »

H.I.M, Poison Girl Bass tabs (ver.1)

Artists:  A B C D E F G H I J K L M N O P Q R S T U V W X Y Z # 

Poison Girl Bass tabs (ver.1)

H.I.M Tabs
 Rating:
4/5 (4 votes)
Poison Girl lessons Tabs too difficult? Try these video lessons and learn fast
                HIM - Poison Girl



Main Riff
G|-----------------|-----------------|-----------------|-----------------|
D|-----------------|-----------------|-----------------|-----------------|
A|-4---4---2-4-2-4-|---4---2---4-2-4-|-4---4---2-4-2-4-|---4---2---4-2-4-|
E|-----------------|-----------------|-----------------|-----------------|
  
G|-----------------|-----------------|-2---2---2-2-2-4-|---4---4-2-2-4-4-|
D|-4---4---2-4-2-4-|---4---2---4-2-4-|-----------------|-----------------|
A|-----------------|-----------------|-----------------|-----------------|
E|-----------------|-----------------|-----------------|-----------------|
                                       1   2   3 + 4 +   1 + 2 + 3 + 4 +
Verse
G|-----------------|-----------------|-----------------|-----------------|
D|-----------------|---------2-2-2-2-|-4-4-4-4-4-4-4-4-|-2-2-2-2---------|
A|-----------------|-4-4-4-4---------|-----------------|---------4-4-4-4-|
E|-2-2-2-2-2-2-2-2-|-----------------|-----------------|-----------------|
  
G|-----------------|-----------------|-----------------|-----------------|
D|-----------------|-----------------|-----------------|-----------------|
A|-5-5-5-5-5-5-5-5-|-5-5-5-5-5-5-5-5-|-----------------|-----------------|
E|-----------------|-----------------|-2-2-----------2-|---2-----------2-|
                                       1 +         4 +   1 +         4 +

G|-----------------|-----------------|-----------------|-----------------|
D|-----------------|---------2-2-2-2-|-4-4-4-4-4-4-4-4-|-2-2-2-2---------|
A|-----------------|-4-4-4-4---------|-----------------|---------4-4-4-4-|
E|-2-2-2-2-2-2-2-2-|-----------------|-----------------|-----------------|
  
G|-----------------|-----------------|-----------------|------------------|
D|-----------------|---------------2-|---2-2-2-2-2-2-4-|---4-4-4-4-4-4-4\-|
A|-5-5-5-5-5-5-5-5-|-5-5-5-5-5-5-5---|-----------------|------------------|
E|-----------------|-----------------|-----------------|------------------|

Chorus 2x
G|----------------4x-|----------------2x-|-----------------|-----------------|
D|*-----------------*|*-----------------*|-----------------|-2-2-2-2-4-4-4-4-|
A|*-----------------*|*-2-2-2-2-2-2-2-2-*|-5-5-5-5-5-5-5-5-|-----------------|
E|--2-2-2-2-2-2-2-2--|-------------------|-----------------|-----------------|

Interlude
G|------------------|------------------|-----------------|-----------------|
D|*-----------------|-----------------*|-----------------|-----------------|
A|*-----4---2-0-----|-----------------*|-2---5---4-2-----|-----------------|
E|--2-------------4-|---2---0---0-2(2)-|---------------5-|---3---0---0-2(5)|
    1 + 2 + 3 + 4 +   1 + 2 + 3 + 4 +    1 + 2 + 3 + 4 +   1 + 2 + 3 + 4 +

G|-----------------|-----------------|-----------------|
D|-----------------|-----------------|-----------------|
A|-----------------|---------2-------|-4~~-------------|
E|-0-------3/6-3-6-|-----------------|-----------------|
   1 + 2 + 3 + 4 +   1 + 2 + 3 + 4 +   1 + 2 + 3 + 4 +

Chorus 2x

End
G|---------2x-|----------|----------|----------|----------|-----|------|-----|
D|*----------*|----------|----------|----------|----------|-----|------|-----|
A|*----------*|----------|-----4444-|----------|----------|-0---|-2--4-|-----|
E|--22222222--|-22223333-|-5555-----|-77777777-|-7777777\-|-----|------|-2---|
                                                 1+2+3+4    1     1  3   1
            
Submit corrections

comments powered by Disqus
↑ Back to top | H.I.M Bass for Poison Girl. Lyrics for acoustic guitar and electric guitar. Tablatures and chords are parodies/interpretations of the original songs. You may use it for private study, scholarship, research or language learning purposes only