» » »

Poison Girl Tabs (ver.3)

Artists:  A B C D E F G H I J K L M N O P Q R S T U V W X Y Z # 

Poison Girl Tabs (ver.3)

H.I.M
Rating:
0/5 (0 votes)

Hard to play? Try these video lessons and learn fast.
                HIM - Poison Girl

Intro
|-----------------------------|
|-----------------------------|
|-----------------------------|
|--4--9---12------------------|  - Play once with no distortion
|--4--9---12------------------|
|--2--7---10------------------|

|-------------------------------------------------|
|-------------------------------------------------|
|-------------------------------------------------|
|--4---9---12---7---2---4-~-----------------------|  - Play once with distortion
|--4---9---12---7---2---4-~-----------------------|
|--2---7---10---5---0---2-~-----------------------|

Verses - little solo thingy
|-------------------------------------------------------------------|
|-------------------------------------------------------------------|
|-------------------------------------------------------------------|
|--4-----9--7--6--4--2----------------------------------------------|
|-----4--------------------4--2--0----------------------------------|
|------------------------------------4--3--4--0--2------------------|

|--------------|
|--------------|
|--------------|
|-7--9-~-------|
|-7--9-~-------|
|-5--7-~-------|

Chorus
|---------------------------------------------------------------|
|---------------------------------------------------------------|
|---------------------------------------------------------------|
|-4---9---12---7---2---4---4---9---12---7---2---4---------------|
|-4---9---12---7---2---4---4---9---12---7---2---4---------------|
|-2---7---10---5---0---2---2---7---10---5---0---2---------------|

Solo (this isnt all of it but its most of it)
|----------------------------------|
|----------------------------------|
|----------------------------------| x 2
|----------------------------------|
|----------------------------------|
|-2--9--7--5--4--2--0--0--2--------|

|--------------------------------------|
|--------------------------------------|
|--------------------------------------|
|--------------------------------------|
|--------------------------------------|
|--7--10--9--7--5--4--0--0--2----------|

Before Chorus
|--------------|
|--------------|
|--------------|
|--4--~--------|
|--4--~--------|
|--2--~--------|
            
Hard to play? Try these video lessons and learn fast. | Correct




comments powered by Disqus
↑ Back to top | Tablatures and chords are parodies/interpretations of the original songs. You may use it for private study, scholarship, research or language learning purposes only