>
 >
Love 1

Love 1 Guitar Tabs

H.I.M - Love 1 chords, tabs, tablatures, lyrics

Guitar lessons | Add/correct | Request | Top 50 tabs Artists:  A B C D E F G H I J K L M N O P Q R S T U V W X Y Z 0-9

Love 1 Guitar Tabs – H.I.M

CD, Sheet music, Poster

Do you like Love 1? Share with your friends now
TabsTabs v2
love (prelude to tragedy)                             

guitar 2
                                                      
E||-----------------------|--------------------------|
B||-----------------------|--------------------------|
G||-----------------------|--------------------------|
D||--------2--2--2--2--2--|--2--2--2--2--2--2--2--2--|
A||--------2--2--2--2--2--|--2--2--2--2--2--2--2--2--|
E||--------0--0--0--0--0--|--0--0--0--0--0--0--0--0--|
B||-----------------------|--------------------------|


                                                      
--------------------------|--------------------------|
--------------------------|--------------------------|
--------------------------|--------------------------|
--2--2--2--2--2--2--2--2--|--2--2--2--2--2--2--2--2--|
--2--2--2--2--2--2--2--2--|--2--2--2--2--2--2--2--2--|
--0--0--0--0--0--0--0--0--|--0--0--0--0--0--0--0--0--|
--------------------------|--------------------------|


                                                      
--------------------------|--------------------------|
--------------------------|--------------------------|
--------------------------|--------------------------|
--2--2--2--2--2--2--2--2--|--2--2--2--2--2--2--2--2--|
--2--2--2--2--2--2--2--2--|--2--2--2--2--2--2--2--2--|
--0--0--0--0--0--0--0--0--|--0--0--0--0--0--0--0--0--|
--------------------------|--------------------------|


                                                                  
--------------------------|--------------------------|-----------|
--------------------------|--------------------------|-----------|
--------------------------|--------------------------|-----------|
--2--2--2--2--2--2--2--2--|--2--2--2--2--2--2--2--2--|--2--2--2--|
--2--2--2--2--2--2--2--2--|--2--2--2--2--2--2--2--2--|--2--2--2--|
--0--0--0--0--0--0--0--0--|--0--0--0--0--0--0--0--0--|--0--0--0--|
--------------------------|--------------------------|-----------|


                                                            
|------------------|------------------|--------------------|
|------------------|------------------|--0-----------------|
|------------------|------------------|-----------0--------|
|------------------|------------------|--------------------|
|------------------|------------------|--------------------|
|------------------|------------------|--------------------|
|------------------|------------------|--------------------|


                                                                              
--------------------|------------------|------------------|------------------|
--------------------|------------------|------------------|------------------|
--------------------|------------------|------------------|------------------|
--4------2----------|------------------|------------------|------------------|
--------------------|------------------|------------------|------------------|
--------------------|------------------|------------------|------------------|
--------------------|------------------|------------------|------------------|


                                                           
-------------------||------------------|------------------|
-------------------||------------------|------------------|
-------------------||------------------|------------------|
-------------------||------------------|------------------|
-------------------||------------------|------------------|
-------------------||------------------|------------------|
-------------------||------------------|------------------|


                                                                         
---------------------|----------------------||--------------------------|
---------------------|----------------------||--------------------------|
---------------------|----------------------||--------------------------|
--5--5--5------------|----------------------||--------------------------|
--5--5--5------------|--5--5--5-------------||--5--5--5--5--5--5--5--5--|
--3--3--3------------|--5--5--5-------------||--5--5--5--5--5--5--5--5--|
---------------------|--3--3--3-------------||--3--3--3--3--3--3--3--3--|


                                                                         
------------------|--------------------------|--------------------------|
------------------|--------------------------|--------------------------|
------------------|--------------------------|--------------------------|
------------------|--2--2--2--2--2--2--2--2--|--2--2--2--2--2--2--2--2--|
------------------|--2--2--2--2--2--2--2--2--|--2--2--2--2--2--2--2--2--|
------------------|--0--0--0--0--0--0--0--0--|--0--0--0--0--0--0--0--0--|
------------------|--------------------------|--------------------------|


                                                      
--------------------------|--------------------------|
--------------------------|--------------------------|
--------------------------|--------------------------|
--2--2--2--2--2--2--2--2--|--2--2--2--2--2--2--2--2--|
--2--2--2--2--2--2--2--2--|--2--2--2--2--2--2--2--2--|
--0--0--0--0--0--0--0--0--|--0--0--0--0--0--0--0--0--|
--------------------------|--------------------------|


                                                      
--------------------------|--------------------------|
--------------------------|--------------------------|
--5--5--5--5--5--5--5--5--|--5--5--5--5--5--5--5--5--|
--5--5--5--5--5--5--5--5--|--5--5--5--5--5--5--5--5--|
--3--3--3--3--3--3--3--3--|--3--3--3--3--3--3--3--3--|
--------------------------|--------------------------|
--------------------------|--------------------------|


                                                      
--------------------------|--------------------------|
--------------------------|--------------------------|
--------------------------|--7--7--7--7--7--7--7--7--|
--5--5--5--5--5--5--5--5--|--7--7--7--7--7--7--7--7--|
--5--5--5--5--5--5--5--5--|--5--5--5--5--5--5--5--5--|
--3--3--3--3--3--3--3--3--|--------------------------|
--------------------------|--------------------------|


                                                      
--------------------------|--------------------------|
--------------------------|--------------------------|
--------------------------|--------------------------|
--2--2--2--2--2--2--2--2--|--2--2--2--2--2--2--2--2--|
--2--2--2--2--2--2--2--2--|--2--2--2--2--2--2--2--2--|
--0--0--0--0--0--0--0--0--|--0--0--0--0--0--0--0--0--|
--------------------------|--------------------------|


                                                      
--------------------------|--------------------------|
--------------------------|--------------------------|
--------------------------|--------------------------|
--2--2--2--2--2--2--2--2--|--2--2--2--2--2--2--2--2--|
--2--2--2--2--2--2--2--2--|--2--2--2--2--2--2--2--2--|
--0--0--0--0--0--0--0--0--|--0--0--0--0--0--0--0--0--|
--------------------------|--------------------------|


                                                      
--------------------------|--------------------------|
--------------------------|--------------------------|
--5--5--5--5--5--5--5--5--|--5--5--5--5--5--5--5--5--|
--5--5--5--5--5--5--5--5--|--5--5--5--5--5--5--5--5--|
--3--3--3--3--3--3--3--3--|--3--3--3--3--3--3--3--3--|
--------------------------|--------------------------|
--------------------------|--------------------------|


                                                     
--------------------------|-------------------------|
--------------------------|-------------------------|
--------------------------|--7--7--7--7--7----------|
--5--5--5--5--5--5--5--5--|--7--7--7--7--7----------|
--5--5--5--5--5--5--5--5--|--5--5--5--5--5--5--7----|
--3--3--3--3--3--3--3--3--|-------------------------|
--------------------------|-------------------------|


                                                       3x                   
|--------------------------|---------------------------||------------------|
|--------------------------|---------------------------||------------------|
|--------------------------|---------------------------||------------------|
|--2--2--2--2--2--2--2--2--|--2--2--2--2--2--2--2--2---||------------------|
|--2--2--2--2--2--2--2--2--|--2--2--2--2--2--2--2--2---||------------------|
|--0--0--0--0--0--0--0--0--|--0--0--0--0--0--0--0--0---||------------------|
|--------------------------|---------------------------||------------------|


                                                                                
------------------|--------------------|--------------------|------------------|
------------------|--0-----------------|--------------------|------------------|
------------------|-----------0--------|--2-----------------|------------------|
------------------|--------------------|---------2----------|------------------|
------------------|--------------------|--------------------|------------------|
------------------|--------------------|--------------------|------------------|
------------------|--------------------|--------------------|------------------|


                                                                              
------------------|------------------|-------------------||------------------|
------------------|------------------|-------------------||------------------|
------------------|------------------|-------------------||------------------|
------------------|------------------|-------------------||------------------|
------------------|------------------|-------------------||------------------|
------------------|------------------|-------------------||------------------|
------------------|------------------|-------------------||------------------|


                                                                 
------------------|---------------------|----------------------||
------------------|---------------------|----------------------||
------------------|---------------------|----------------------||
------------------|--5--5--5------------|----------------------||
------------------|--5--5--5------------|--5--5--5-------------||
------------------|--3--3--3------------|--5--5--5-------------||
------------------|---------------------|--3--3--3-------------||


                                                                         
--------------------------|------------------|--------------------------|
--------------------------|------------------|--------------------------|
--------------------------|------------------|--------------------------|
--------------------------|------------------|--2--2--2--2--2--2--2--2--|
--5--5--5--5--5--5--5--5--|------------------|--2--2--2--2--2--2--2--2--|
--5--5--5--5--5--5--5--5--|------------------|--0--0--0--0--0--0--0--0--|
--3--3--3--3--3--3--3--3--|------------------|--------------------------|


                                                      
--------------------------|--------------------------|
--------------------------|--------------------------|
--------------------------|--------------------------|
--2--2--2--2--2--2--2--2--|--2--2--2--2--2--2--2--2--|
--2--2--2--2--2--2--2--2--|--2--2--2--2--2--2--2--2--|
--0--0--0--0--0--0--0--0--|--0--0--0--0--0--0--0--0--|
--------------------------|--------------------------|


                                                      
--------------------------|--------------------------|
--------------------------|--------------------------|
--------------------------|--5--5--5--5--5--5--5--5--|
--2--2--2--2--2--2--2--2--|--5--5--5--5--5--5--5--5--|
--2--2--2--2--2--2--2--2--|--3--3--3--3--3--3--3--3--|
--0--0--0--0--0--0--0--0--|--------------------------|
--------------------------|--------------------------|


                                                      
--------------------------|--------------------------|
--------------------------|--------------------------|
--5--5--5--5--5--5--5--5--|--------------------------|
--5--5--5--5--5--5--5--5--|--5--5--5--5--5--5--5--5--|
--3--3--3--3--3--3--3--3--|--5--5--5--5--5--5--5--5--|
--------------------------|--3--3--3--3--3--3--3--3--|
--------------------------|--------------------------|


                                                      
--------------------------|--------------------------|
--------------------------|--------------------------|
--7--7--7--7--7--7--7--7--|--------------------------|
--7--7--7--7--7--7--7--7--|--2--2--2--2--2--2--2--2--|
--5--5--5--5--5--5--5--5--|--2--2--2--2--2--2--2--2--|
--------------------------|--0--0--0--0--0--0--0--0--|
--------------------------|--------------------------|


                                                      
--------------------------|--------------------------|
--------------------------|--------------------------|
--------------------------|--------------------------|
--2--2--2--2--2--2--2--2--|--2--2--2--2--2--2--2--2--|
--2--2--2--2--2--2--2--2--|--2--2--2--2--2--2--2--2--|
--0--0--0--0--0--0--0--0--|--0--0--0--0--0--0--0--0--|
--------------------------|--------------------------|


                                                      
--------------------------|--------------------------|
--------------------------|--------------------------|
--------------------------|--5--5--5--5--5--5--5--5--|
--2--2--2--2--2--2--2--2--|--5--5--5--5--5--5--5--5--|
--2--2--2--2--2--2--2--2--|--3--3--3--3--3--3--3--3--|
--0--0--0--0--0--0--0--0--|--------------------------|
--------------------------|--------------------------|


                                                                                
--------------------------|--------------------------|-------------------------|
--------------------------|--------------------------|-------------------------|
--5--5--5--5--5--5--5--5--|--------------------------|--7--7--7--7--7----------|
--5--5--5--5--5--5--5--5--|--5--5--5--5--5--5--5--5--|--7--7--7--7--7----------|
--3--3--3--3--3--3--3--3--|--5--5--5--5--5--5--5--5--|--5--5--5--5--5--5--7----|
--------------------------|--3--3--3--3--3--3--3--3--|-------------------------|
--------------------------|--------------------------|-------------------------|


                                                       7x                       
|--------------------------|---------------------------||----------------------|
|--------------------------|---------------------------||----------------------|
|--------------------------|---------------------------||----------------------|
|--2--2--2--2--2--2--2--2--|--2--2--2--2--2--2--2--2---||--2--2----------2--2--|
|--2--2--2--2--2--2--2--2--|--2--2--2--2--2--2--2--2---||--2--2----------2--2--|
|--0--0--0--0--0--0--0--0--|--0--0--0--0--0--0--0--0---||--0--0----------0--0--|
|--------------------------|---------------------------||----------------------|


      
----||
----||
----||
----||
----||
----||
----||





Comments


Popular H.I.M tabs & chords
Gone With The Sin 3 Bass Tabs
Vampire - Bass Adaption Bass Tabs
Acoustic Funeral (For Love In Limbo) Chords
For You 2 Chords
Bury Me Deep Inside Your Heart Tabs
Funeral Of Hearts 1 Tabs
Kiss Of Dawn 1 Tabs
The Funeral Of Hearts (Solo Ver 3) Tabs
Acoustic Funeral For Love In Limbo Ukulele
This Fortress Of Tears Ukulele


Song lyrics



↑ Back to top | Tablatures and chords are parodies/interpretations of the original songs. You may use it for private study, scholarship, research or language learning purposes only
© 2014 AZChords.com Contact us | Privacy policy | DMCA | Add/correct tabs | Request tabs | Top 50 tabs