>
 >
Love 2

Love 2 Bass Tabs

H.I.M - Love 2 chords, tabs, tablatures, lyrics

Guitar lessons | Add/correct | Request | Top 50 tabs Artists:  A B C D E F G H I J K L M N O P Q R S T U V W X Y Z 0-9

Love 2 Bass Tabs – H.I.M

CD, Sheet music, Poster

Do you like Love 2? Share with your friends now
Bass Tabs
love (prelude to tragedy)                             
By Boris Zivkovic  (walkaway)

bass
                                                       
G||------------------------|--------------------------|
D||*-----------------------|--------------------------|
A||------------------------|--------------------------|
E||*--------0--0--0--0--0--|--0--0--0--0--0--0--0--0--|
B||------------------------|--------------------------|


                                                      
--------------------------|--------------------------|
--------------------------|--------------------------|
--------------------------|--------------------------|
--0--0--0--0--0--0--0--0--|--0--0--0--0--0--0--0--0--|
--------------------------|--------------------------|


                                                      
--------------------------|--------------------------|
--------------------------|--------------------------|
--------------------------|--------------------------|
--0--0--0--0--0--0--0--0--|--0--0--0--0--0--0--0--0--|
--------------------------|--------------------------|


                                                                  
--------------------------|--------------------------|-----------|
--------------------------|--------------------------|-----------|
--------------------------|--------------------------|-----------|
--0--0--0--0--0--0--0--0--|--0--0--0--0--0--0--0--0--|--0--0--0--|
--------------------------|--------------------------|-----------|


                                                        
|---------------------------|--------------------------|
|*--------------------------|--------------------------|
|---------------------------|--------------------------|
|*--0--0--0--0--0--0--0--0--|--0--0--0--0--0--0--0--0--|
|---------------------------|--------------------------|


                                                      
--------------------------|--------------------------|
--------------------------|--------------------------|
--------------------------|--------------------------|
--0--0--0--0--0--0--0--0--|--0--0--0--0--0--0--0--0--|
--------------------------|--------------------------|


                                                      
--------------------------|--------------------------|
--------------------------|--------------------------|
--3--3--3--3--3--3--3--3--|--3--3--3--3--3--3--3--3--|
--------------------------|--------------------------|
--------------------------|--------------------------|


                                                        
--------------------------|---------------------------||
--------------------------|--------------------------*||
--------------------------|--5--5--5--5--5--5--5--5---||
--3--3--3--3--3--3--3--3--|--------------------------*||
--------------------------|---------------------------||


                                                       
---------------------------|--------------------------|
*--------------------------|--------------------------|
---3--3--3--3--3--3--3--3--|--3--3--3--3--3--3--3--3--|
*--------------------------|--------------------------|
---------------------------|--------------------------|


                                                                  
--------------------------|---------------------------||----|----|
--------------------------|--------------------------*||----|----|
--------------------------|---------------------------||----|----|
--3--3--3--3--3--3--3--3--|--------------------------*||----|----|
--------------------------|--3--3--3--3--3--3--3--3---||----|----|


                                                      
--------------------------|--------------------------|
--------------------------|--------------------------|
--------------------------|--------------------------|
--0--0--0--0--0--0--0--0--|--0--0--0--0--0--0--0--0--|
--------------------------|--------------------------|


                                                      
--------------------------|--------------------------|
--------------------------|--------------------------|
--------------------------|--------------------------|
--0--0--0--0--0--0--0--0--|--0--0--0--0--0--0--0--0--|
--------------------------|--------------------------|


                                                      
--------------------------|--------------------------|
--------------------------|--------------------------|
--3--3--3--3--3--3--3--3--|--3--3--3--3--3--3--3--3--|
--------------------------|--------------------------|
--------------------------|--------------------------|


                                                      
--------------------------|--------------------------|
--------------------------|--------------------------|
--------------------------|--5--5--5--5--5--5--5--5--|
--3--3--3--3--3--3--3--3--|--------------------------|
--------------------------|--------------------------|


                                                      
--------------------------|--------------------------|
--------------------------|--------------------------|
--------------------------|--------------------------|
--0--0--0--0--0--0--0--0--|--0--0--0--0--0--0--0--0--|
--------------------------|--------------------------|


                                                      
--------------------------|--------------------------|
--------------------------|--------------------------|
--------------------------|--------------------------|
--0--0--0--0--0--0--0--0--|--0--0--0--0--0--0--0--0--|
--------------------------|--------------------------|


                                                      
--------------------------|--------------------------|
--------------------------|--------------------------|
--3--3--3--3--3--3--3--3--|--3--3--3--3--3--3--3--3--|
--------------------------|--------------------------|
--------------------------|--------------------------|


                                                      
--------------------------|--------------------------|
--------------------------|--------------------------|
--------------------------|--5--5--5--5--5--5--5--5--|
--3--3--3--3--3--3--3--3--|--------------------------|
--------------------------|--------------------------|


                                                        3x
|---------------------------|---------------------------||
|*--------------------------|--------------------------*||
|---------------------------|---------------------------||
|*--0--0--0--0--0--0--0--0--|--0--0--0--0--0--0--0--0--*||
|---------------------------|---------------------------||


                                                       
---------------------------|--------------------------|
*--------------------------|--------------------------|
---------------------------|--------------------------|
*--0--0--0--0--0--0--0--0--|--0--0--0--0--0--0--0--0--|
---------------------------|--------------------------|


                                                      
--------------------------|--------------------------|
--------------------------|--------------------------|
--------------------------|--------------------------|
--0--0--0--0--0--0--0--0--|--0--0--0--0--0--0--0--0--|
--------------------------|--------------------------|


                                                      
--------------------------|--------------------------|
--------------------------|--------------------------|
--3--3--3--3--3--3--3--3--|--3--3--3--3--3--3--3--3--|
--------------------------|--------------------------|
--------------------------|--------------------------|


                                                        
--------------------------|---------------------------||
--------------------------|--------------------------*||
--------------------------|--5--5--5--5--5--5--5--5---||
--3--3--3--3--3--3--3--3--|--------------------------*||
--------------------------|---------------------------||


                                                       
---------------------------|--------------------------|
*--------------------------|--------------------------|
---3--3--3--3--3--3--3--3--|--3--3--3--3--3--3--3--3--|
*--------------------------|--------------------------|
---------------------------|--------------------------|


                                                                  
--------------------------|---------------------------||----|----|
--------------------------|--------------------------*||----|----|
--------------------------|---------------------------||----|----|
--3--3--3--3--3--3--3--3--|--------------------------*||----|----|
--------------------------|--3--3--3--3--3--3--3--3---||----|----|


                                                      
--------------------------|--------------------------|
--------------------------|--------------------------|
--------------------------|--------------------------|
--0--0--0--0--0--0--0--0--|--0--0--0--0--0--0--0--0--|
--------------------------|--------------------------|


                                                      
--------------------------|--------------------------|
--------------------------|--------------------------|
--------------------------|--------------------------|
--0--0--0--0--0--0--0--0--|--0--0--0--0--0--0--0--0--|
--------------------------|--------------------------|


                                                      
--------------------------|--------------------------|
--------------------------|--------------------------|
--3--3--3--3--3--3--3--3--|--3--3--3--3--3--3--3--3--|
--------------------------|--------------------------|
--------------------------|--------------------------|


                                                      
--------------------------|--------------------------|
--------------------------|--------------------------|
--------------------------|--5--5--5--5--5--5--5--5--|
--3--3--3--3--3--3--3--3--|--------------------------|
--------------------------|--------------------------|


                                                      
--------------------------|--------------------------|
--------------------------|--------------------------|
--------------------------|--------------------------|
--0--0--0--0--0--0--0--0--|--0--0--0--0--0--0--0--0--|
--------------------------|--------------------------|


                                                      
--------------------------|--------------------------|
--------------------------|--------------------------|
--------------------------|--------------------------|
--0--0--0--0--0--0--0--0--|--0--0--0--0--0--0--0--0--|
--------------------------|--------------------------|


                                                      
--------------------------|--------------------------|
--------------------------|--------------------------|
--3--3--3--3--3--3--3--3--|--3--3--3--3--3--3--3--3--|
--------------------------|--------------------------|
--------------------------|--------------------------|


                                                                    7x
--------------------------|--------------------------||-----|-------||
--------------------------|--------------------------||*----|------*||
--------------------------|--5--5--5--5--5--5--5--5--||-----|-------||
--3--3--3--3--3--3--3--3--|--------------------------||*----|------*||
--------------------------|--------------------------||-----|-------||


                             
----------------------|----||
----------------------|----||
----------------------|----||
--0--0----------0--0--|----||
----------------------|----||





Comments


Popular H.I.M tabs & chords
The Funeral Of Hearts Bass Tabs
Behind The Crimson Door Intro 1 Tabs
Behind The Crimson Door Intro 3 Tabs
Cyanide Sun Intro 2 Tabs
One Last Time Tabs
One Last Time 1 Tabs
Pretending Tabs
The Sacrement 1 Tabs
Vampire Heart Intro 1 Tabs
Wings Of A Butterfly 2 Tabs


Song lyrics



↑ Back to top | Tablatures and chords are parodies/interpretations of the original songs. You may use it for private study, scholarship, research or language learning purposes only
© 2014 AZChords.com Contact us | Privacy policy | DMCA | Add/correct tabs | Request tabs | Top 50 tabs