>
 >
Love

Love Guitar Tabs

H.I.M - Love chords, tabs, tablatures, lyrics

Guitar lessons | Add/correct | Request | Top 50 tabs Artists:  A B C D E F G H I J K L M N O P Q R S T U V W X Y Z 0-9

Love Guitar Tabs – H.I.M

CD, Sheet music, Poster

Do you like Love? Share with your friends now
TabsTabs v2
love (prelude to tragedy)                             

Accoustic Guitar
                                                                            
E||------------------------|-----------------------|-----------------------|
B||------------------------|-----------------------|-----------------------|
G||*----------9------------|-----------------------|----------9------------|
D||*--5--7---------7----5--|--7----10----9----7----|--5--7---------7----5--|
A||------------------------|-----------------------|-----------------------|
E||------------------------|-----------------------|-----------------------|


                                                                        
-----------------------|-----------------------|-----------------------|
-----------------------|-----------------------|-----------------------|
-----------------------|----------9------------|-----------------------|
--7----10----9----7----|--5--7---------7----5--|--7----10----9----7----|
-----------------------|-----------------------|-----------------------|
-----------------------|-----------------------|-----------------------|


                                                           
-----------------------|-----------------------|----------|
-----------------------|-----------------------|----------|
----------9------------|-----------------------|----------|
--5--7---------7----5--|--7----10----9----7----|--5--7----|
-----------------------|-----------------------|----------|
-----------------------|-----------------------|----------|


                                                                                
|---0----------------|------------------|--0----------------|------------------|
|---0----------------|------------------|--0----------------|------------------|
|*--0----------------|------------------|--0----------------|------------------|
|*--2----------------|------------------|--2----------------|------------------|
|---2----------------|------------------|--2----------------|------------------|
|---0----------------|------------------|--0----------------|------------------|


                                                           
--0----------------|------------------|--3----------------|
--1----------------|------------------|--0----------------|
--0----------------|------------------|--0----------------|
--2----------------|------------------|--0----------------|
--3----------------|------------------|--2----------------|
--0----------------|------------------|--3----------------|


                                                              
--2-----------------||---0----------------|------------------|
--3-----------------||---1----------------|------------------|
--2----------------*||*--0----------------|------------------|
--0----------------*||*--2----------------|------------------|
--------------------||---3----------------|------------------|
--------------------||---0----------------|------------------|


                                                                                
--3----------------|--2-----------------||------------------|------------------|
--0----------------|--3-----------------||------------------|------------------|
--0----------------|--2----------------*||------------------|------------------|
--0----------------|--0----------------*||------------------|------------------|
--2----------------|--------------------||------------------|------------------|
--3----------------|--------------------||------------------|------------------|


                                                      
--0--0--0--0--0--0--0--0--|--0--0--0--0--0--0--0--0--|
--0--0--0--0--0--0--0--0--|--0--0--0--0--0--0--0--0--|
--0--0--0--0--0--0--0--0--|--0--0--0--0--0--0--0--0--|
--2--2--2--2--2--2--2--2--|--2--2--2--2--2--2--2--2--|
--2--2--2--2--2--2--2--2--|--2--2--2--2--2--2--2--2--|
--0--0--0--0--0--0--0--0--|--0--0--0--0--0--0--0--0--|


                                                      
--0--0--0--0--0--0--0--0--|--0--0--0--0--0--0--0--0--|
--0--0--0--0--0--0--0--0--|--0--0--0--0--0--0--0--0--|
--0--0--0--0--0--0--0--0--|--0--0--0--0--0--0--0--0--|
--2--2--2--2--2--2--2--2--|--2--2--2--2--2--2--2--2--|
--2--2--2--2--2--2--2--2--|--2--2--2--2--2--2--2--2--|
--0--0--0--0--0--0--0--0--|--0--0--0--0--0--0--0--0--|


                                                      
--0--0--0--0--0--0--0--0--|--0--0--0--0--0--0--0--0--|
--1--1--1--1--1--1--1--1--|--1--1--1--1--1--1--1--1--|
--0--0--0--0--0--0--0--0--|--0--0--0--0--0--0--0--0--|
--2--2--2--2--2--2--2--2--|--2--2--2--2--2--2--2--2--|
--3--3--3--3--3--3--3--3--|--3--3--3--3--3--3--3--3--|
--0--0--0--0--0--0--0--0--|--0--0--0--0--0--0--0--0--|


                                                      
--3--3--3--3--3--3--3--3--|--2--2--2--2--2--2--2--2--|
--0--0--0--0--0--0--0--0--|--3--3--3--3--3--3--3--3--|
--0--0--0--0--0--0--0--0--|--2--2--2--2--2--2--2--2--|
--0--0--0--0--0--0--0--0--|--0--0--0--0--0--0--0--0--|
--2--2--2--2--2--2--2--2--|--------------------------|
--3--3--3--3--3--3--3--3--|--------------------------|


                                                      
--0--0--0--0--0--0--0--0--|--0--0--0--0--0--0--0--0--|
--0--0--0--0--0--0--0--0--|--0--0--0--0--0--0--0--0--|
--0--0--0--0--0--0--0--0--|--0--0--0--0--0--0--0--0--|
--2--2--2--2--2--2--2--2--|--2--2--2--2--2--2--2--2--|
--2--2--2--2--2--2--2--2--|--2--2--2--2--2--2--2--2--|
--0--0--0--0--0--0--0--0--|--0--0--0--0--0--0--0--0--|


                                                      
--0--0--0--0--0--0--0--0--|--0--0--0--0--0--0--0--0--|
--0--0--0--0--0--0--0--0--|--0--0--0--0--0--0--0--0--|
--0--0--0--0--0--0--0--0--|--0--0--0--0--0--0--0--0--|
--2--2--2--2--2--2--2--2--|--2--2--2--2--2--2--2--2--|
--2--2--2--2--2--2--2--2--|--2--2--2--2--2--2--2--2--|
--0--0--0--0--0--0--0--0--|--0--0--0--0--0--0--0--0--|


                                                      
--0--0--0--0--0--0--0--0--|--0--0--0--0--0--0--0--0--|
--1--1--1--1--1--1--1--1--|--1--1--1--1--1--1--1--1--|
--0--0--0--0--0--0--0--0--|--0--0--0--0--0--0--0--0--|
--2--2--2--2--2--2--2--2--|--2--2--2--2--2--2--2--2--|
--3--3--3--3--3--3--3--3--|--3--3--3--3--3--3--3--3--|
--0--0--0--0--0--0--0--0--|--0--0--0--0--0--0--0--0--|


                                                                                
--3--3--3--3--3--3--3--3--|--2--2--2--2--2----------||-------------------------|
--0--0--0--0--0--0--0--0--|--3--3--3--3--3----------||-------------------------|
--0--0--0--0--0--0--0--0--|--2--2--2--2--2----------||*--9---------------------|
--0--0--0--0--0--0--0--0--|--0--0--0--0--0--5--7----||*-------7----5--7----10--|
--2--2--2--2--2--2--2--2--|-------------------------||-------------------------|
--3--3--3--3--3--3--3--3--|-------------------------||-------------------------|


                       3x                                        
-----------------------||---0----------------|------------------|
-----------------------||---0----------------|------------------|
----------------------*||*--0----------------|------------------|
----9----7----5--7----*||*--2----------------|------------------|
-----------------------||---2----------------|------------------|
-----------------------||---0----------------|------------------|


                                                                              
--0----------------|------------------|--0----------------|------------------|
--0----------------|------------------|--1----------------|------------------|
--0----------------|------------------|--0----------------|------------------|
--2----------------|------------------|--2----------------|------------------|
--2----------------|------------------|--3----------------|------------------|
--0----------------|------------------|--0----------------|------------------|


                                                               
--3----------------|--2-----------------||---0----------------|
--0----------------|--3-----------------||---1----------------|
--0----------------|--2----------------*||*--0----------------|
--0----------------|--0----------------*||*--2----------------|
--2----------------|--------------------||---3----------------|
--3----------------|--------------------||---0----------------|


                                                                                
------------------|--3----------------|--2-----------------||------------------|
------------------|--0----------------|--3-----------------||------------------|
------------------|--0----------------|--2----------------*||------------------|
------------------|--0----------------|--0----------------*||------------------|
------------------|--2----------------|--------------------||------------------|
------------------|--3----------------|--------------------||------------------|


                                                                         
------------------|--0--0--0--0--0--0--0--0--|--0--0--0--0--0--0--0--0--|
------------------|--0--0--0--0--0--0--0--0--|--0--0--0--0--0--0--0--0--|
------------------|--0--0--0--0--0--0--0--0--|--0--0--0--0--0--0--0--0--|
------------------|--2--2--2--2--2--2--2--2--|--2--2--2--2--2--2--2--2--|
------------------|--2--2--2--2--2--2--2--2--|--2--2--2--2--2--2--2--2--|
------------------|--0--0--0--0--0--0--0--0--|--0--0--0--0--0--0--0--0--|


                                                      
--0--0--0--0--0--0--0--0--|--0--0--0--0--0--0--0--0--|
--0--0--0--0--0--0--0--0--|--0--0--0--0--0--0--0--0--|
--0--0--0--0--0--0--0--0--|--0--0--0--0--0--0--0--0--|
--2--2--2--2--2--2--2--2--|--2--2--2--2--2--2--2--2--|
--2--2--2--2--2--2--2--2--|--2--2--2--2--2--2--2--2--|
--0--0--0--0--0--0--0--0--|--0--0--0--0--0--0--0--0--|


                                                      
--0--0--0--0--0--0--0--0--|--0--0--0--0--0--0--0--0--|
--1--1--1--1--1--1--1--1--|--1--1--1--1--1--1--1--1--|
--0--0--0--0--0--0--0--0--|--0--0--0--0--0--0--0--0--|
--2--2--2--2--2--2--2--2--|--2--2--2--2--2--2--2--2--|
--3--3--3--3--3--3--3--3--|--3--3--3--3--3--3--3--3--|
--0--0--0--0--0--0--0--0--|--0--0--0--0--0--0--0--0--|


                                                      
--3--3--3--3--3--3--3--3--|--2--2--2--2--2--2--2--2--|
--0--0--0--0--0--0--0--0--|--3--3--3--3--3--3--3--3--|
--0--0--0--0--0--0--0--0--|--2--2--2--2--2--2--2--2--|
--0--0--0--0--0--0--0--0--|--0--0--0--0--0--0--0--0--|
--2--2--2--2--2--2--2--2--|--------------------------|
--3--3--3--3--3--3--3--3--|--------------------------|


                                                      
--0--0--0--0--0--0--0--0--|--0--0--0--0--0--0--0--0--|
--0--0--0--0--0--0--0--0--|--0--0--0--0--0--0--0--0--|
--0--0--0--0--0--0--0--0--|--0--0--0--0--0--0--0--0--|
--2--2--2--2--2--2--2--2--|--2--2--2--2--2--2--2--2--|
--2--2--2--2--2--2--2--2--|--2--2--2--2--2--2--2--2--|
--0--0--0--0--0--0--0--0--|--0--0--0--0--0--0--0--0--|


                                                      
--0--0--0--0--0--0--0--0--|--0--0--0--0--0--0--0--0--|
--0--0--0--0--0--0--0--0--|--0--0--0--0--0--0--0--0--|
--0--0--0--0--0--0--0--0--|--0--0--0--0--0--0--0--0--|
--2--2--2--2--2--2--2--2--|--2--2--2--2--2--2--2--2--|
--2--2--2--2--2--2--2--2--|--2--2--2--2--2--2--2--2--|
--0--0--0--0--0--0--0--0--|--0--0--0--0--0--0--0--0--|


                                                      
--0--0--0--0--0--0--0--0--|--0--0--0--0--0--0--0--0--|
--1--1--1--1--1--1--1--1--|--1--1--1--1--1--1--1--1--|
--0--0--0--0--0--0--0--0--|--0--0--0--0--0--0--0--0--|
--2--2--2--2--2--2--2--2--|--2--2--2--2--2--2--2--2--|
--3--3--3--3--3--3--3--3--|--3--3--3--3--3--3--3--3--|
--0--0--0--0--0--0--0--0--|--0--0--0--0--0--0--0--0--|


                                                                                
--3--3--3--3--3--3--3--3--|--2--2--2--2--2----------||-------------------------|
--0--0--0--0--0--0--0--0--|--3--3--3--3--3----------||-------------------------|
--0--0--0--0--0--0--0--0--|--2--2--2--2--2----------||*--9---------------------|
--0--0--0--0--0--0--0--0--|--0--0--0--0--0--5--7----||*-------7----5--7----10--|
--2--2--2--2--2--2--2--2--|-------------------------||-------------------------|
--3--3--3--3--3--3--3--3--|-------------------------||-------------------------|


                       7x                             
-----------------------||--0--0----------0--0--|----||
-----------------------||--0--0----------0--0--|----||
----------------------*||--0--0----------0--0--|----||
----9----7----5--7----*||--2--2----------2--2--|----||
-----------------------||--2--2----------2--2--|----||
-----------------------||--0--0----------0--0--|----||





Comments


Popular H.I.M tabs & chords
Its All Tears 2 Bass Tabs
Stigmata Diaboli 2 Bass Tabs
Killing Loneliness Chords
Love The Hardest Way Chords
Poison Girl 1 Chords
Buried Alive By Love Live Drum Tabs
Rip Out The Wings Of A Butterfly 4 Tabs
Vampire Heart Intro 2 Tabs
Close To The Flame Ukulele
Heartache Every Moment Ukulele


Song lyrics



↑ Back to top | Tablatures and chords are parodies/interpretations of the original songs. You may use it for private study, scholarship, research or language learning purposes only
© 2014 AZChords.com Contact us | Privacy policy | DMCA | Add/correct tabs | Request tabs | Top 50 tabs