» » »

H.I.M, Join Me Tabs (ver.1)

Artists:  A B C D E F G H I J K L M N O P Q R S T U V W X Y Z # 

Join Me Tabs (ver.1)

H.I.M Tabs
Rating:
0/5 (0 votes)
Join Me lessons Tabs too difficult? Try these video lessons and learn fast
                #   song. You may only use thi file for private study, scholarship or research.   #




Tune all guitars down 1 step.

\=slide down
/=slide up
pm=palm muted



Intro:
                                                                   2x       
d-------------------------------------------------------------------|
A-------------------------------------------------------------------|
F-----------------------7-7-7-7-7-7---------------------------------|
C-7-7-3-3--3-3-3-3-3-3--7-7-7-7-7-7--7-7-7-7-7-7-\-5-/7-7-7-7-7-7-7-|
G-7-7-3-3--3-3-3-3-3-3--5-5-5-5-5-5--7-7-7-7-7-7-\-5-/7-7-7-7-7-7-7-|
D-5-5-1-1--1-1-1-1-1-1---------------5-5-5-5-5-5-\-3-/5-5-5-5-5-5-5-|


Verse:
                                   3x
d----------------------------------|   -------------|
A----------------------------------|   -------------|
F----------------------------------|   -------------|
C-7-7-7-7-7-7-7-7-2-2-2-2-2-2-2-2--|   -5-5-5-5-5-5-|
G-7-7-7-7-7-7-7-7-2-2-2-2-2-2-2-2--|   -5-5-5-5-5-5-|
D-5-5-5-5-5-5-5-5-0-0-0-0-0-0-0-0--|   -3-3-3-3-3-3-|
pm. . . . . . . . . . . . . . . .       . . . . . . 
            
Submit corrections

comments powered by Disqus
↑ Back to top | H.I.M Tabs for Join Me. Lyrics for acoustic guitar and electric guitar. Tablatures and chords are parodies/interpretations of the original songs. You may use it for private study, scholarship, research or language learning purposes only