» » »

H.I.M, Join Me Bass tabs (ver.1)

Artists:  A B C D E F G H I J K L M N O P Q R S T U V W X Y Z # 

Join Me Bass tabs (ver.1)

H.I.M Tabs
 Rating:
4/5 (4 votes)
Join Me lessons Tabs too difficult? Try these video lessons and learn fast
                HIM - Join me



Intro:
G |-------|----------|----------|------------|------------|-------|-----|
D |-------|----------|----------|------------|------------|-------|-----|
A |-------|----------|-4--4-444-|------6-666-|------6-----|-------|-----|
E |-2-2-1-|-0--0-002-|----------|-2/4--------|-2/4----221-|-0~~---|-2~~-|
    + 4 +   1+2+3+4+   1+2+3+4+   1 + 2+3+4+   1 + 2+3+4+   1       1

Verse 1:
G |-------------------------------------------------------------------------|
D |-------------------------------------------------------------------------|
A |----------66666666----------66666666----------66666666-44444444----------| 
E |-44444444----------44444444----------44444444-------------------22222222-|

G |--------------------------------------------------------------------------|
D |--------------------------------------------------------------------------|
A |----------66666666----------66666666----------66666666-44444444-----------|
E |-44444444----------44444444----------44444444--------------------2-2--221-|
                                                                    1 2  +4+
Chorus:
G |----------|----------|------------|------------|       G |-------|-------|
D |----------|----------|------------|------------|       D |-------|-------|
A |----------|-4--4-444-|------6-666-|------6-----| x3    A |-------|-------|
E |-0--0-002-|----------|-2/4--------|-2/4----221-|       E |-0~~---|-2~~---|
    1+2+3+4+   1+2+3+4+   1 + 2+3+4+   1 + 2+3+4+             1       1

Verse 2:
G |-------------------------------------------------------------------------|
D |-------------------------------------------------------------------------|
A |----------66666666----------66666666----------66666666-44444444----------| 
E |-44444444----------44444444----------44444444-------------------2-2--221-|
                                                                   1 2  +4+
Chorus
G |----------|----------|------------|------------|
D |----------|----------|------------|------------|
A |----------|-4--4-444-|------6-666-|------6-----| x3
E |-0--0-002-|----------|-2/4--------|-2/4----221-|
    1+2+3+4+   1+2+3+4+   1 + 2+3+4+   1 + 2+3+4+

G |-------|-----------|-----------------|-----------------|--R--|
D |-------|-----------|-----------------|-----------------|--E--|
A |-------|-----------|-----------------|-----------------|--S--|
E |-0~~---|-2--2/6\2--|-4-2-2-442-2-4-2-|-2-442-2-4-2-4-2-|--T--|
    1       1+2+ 3      1 + 2 +e3 + 4 +   1 +e2 + 3 + 4 +

pre-chorus 3:
G |------|-------|-------|-------|------|-------|-------|-r-|--------|
D |------|-------|-------|-------|------|-------|-------|-e-|--------|
A |------|-------|-4~~---|-6~~---|------|-------|-4~~---|-s-|--------|
E |----2-|-0~~---|-------|-------|----2-|-0~~---|-------|-t-|----221-|
      4+   1       1       1         4+   1       1              +4+

Chorus

End chorus 3:
G |----------|----------|
D |----------|----------|
A |----------|-4--4-----|
E |-0--0-002-|-----2222-|
    1+2+3+4+   1+2+3+4+
            
Submit corrections

comments powered by Disqus
↑ Back to top | H.I.M Bass for Join Me. Lyrics for acoustic guitar and electric guitar. Tablatures and chords are parodies/interpretations of the original songs. You may use it for private study, scholarship, research or language learning purposes only