» » »

Join Me Tabs (ver.3)

Artists:  A B C D E F G H I J K L M N O P Q R S T U V W X Y Z # 

Join Me Tabs (ver.3)

H.I.M
Rating:
0/5 (0 votes)

Hard to play? Try these video lessons and learn fast.
                -----2-4---------|-----------------|-----------------|-----------------|------
-----------------|-----4-5---------|-----------------|-----------------|------
---4-------------|-----------------|-------4---------|-----------------|---4--
-2---------------|---6-------------|-----8-----------|-----------------|-2----
-----------------|-4---------------|---6-------------|-----------------|------
-----------------|-----------------|-4---------------|-----------------|------
 Intro/Chorus:                                                     (3x)       

-2-4---------|-----4-6---------|----------------------------------------------
-------------|-----------------|----------------------------------------------
-------------|---6-------------|----------------------------------------------
-------------|-4---------------|----------------------------------------------
-------------|-----------------|----------------------------------------------
-------------|-----------------|----------------------------------------------
            
Hard to play? Try these video lessons and learn fast. | Correct




comments powered by Disqus
↑ Back to top | Tablatures and chords are parodies/interpretations of the original songs. You may use it for private study, scholarship, research or language learning purposes only