» » »

In The Nightside Of Eden Tabs (ver.2)

Artists:  A B C D E F G H I J K L M N O P Q R S T U V W X Y Z # 

In The Nightside Of Eden Tabs (ver.2)

H.I.M
Rating:
0/5 (0 votes)

Hard to play? Try these video lessons and learn fast.
                (Intro)
Album:Dark Light


This is a sweet song by H.I.M.
This is the intro that is really on keyboard.


E-20--19--17--15--14--14---------------20--19--17--19-|
B--------------------------15---13--------------------|
G-----------------------------------------------------|
D-----------------------------------------------------|
A-----------------------------------------------------|
E-----------------------------------------------------|

E-20--19--17--15--14--14------------------------------|
B--------------------------15---13--------------------|
G-----------------------------------------------------|
D-----------------------------------------------------|
A-----------------------------------------------------|
E-----------------------------------------------------|


E-12--14--15--17--15--14--19--15---14---12--------|
B-------------------------------------------------|
G-------------------------------------------------|
D-------------------------------------------------|
A-------------------------------------------------|
E-------------------------------------------------|
            
Hard to play? Try these video lessons and learn fast. | Correct




comments powered by Disqus
↑ Back to top | Tablatures and chords are parodies/interpretations of the original songs. You may use it for private study, scholarship, research or language learning purposes only