» » »

H.I.M, In The Nightside Of Eden Tabs (ver.1)

Artists:  A B C D E F G H I J K L M N O P Q R S T U V W X Y Z # 

In The Nightside Of Eden Tabs (ver.1)

H.I.M Tabs
Rating:
0/5 (0 votes)
In The Nightside Of Eden lessons Tabs too difficult? Try these video lessons and learn fast
                -------------------------------------------------------------------------------
                     In The Nightside Of Eden - HIM
-------------------------------------------------------------------------------




Tuning:standard

great song.not too hard either.noticed there werent any good tabs for it.thought id do it.


intro 1 00:12nx1
e|-----------------------------------------|
B|-----------------------------------------|
G|-----------------------------------------|
D|-5-5-5-5-5-5-5--7-7-7-7--2---------------|
A|-3-3-3-3-3-3-3--5-5-5-5--0---------------|
E|-----------------------------------------|


intro 2 00:16 x3
e|-----------------------------------------|
B|-----------------------------------------|
G|-----------------------------------------|
D|-2-2-2-2-5-5-5---------------------------|
A|-0-0-0-0-3-3-3---------------------------|
E|---------------3---3---3--0-3~-----------|

repeat into 1

the first part of the verse is just bass and drums.

then at 00:43 repeat intro 1 again


verse 00:47 x3           
e|---------------------------------------------------------------------|
B|---------------------------------------------------------------------|
G|---------------------------------------------------------------------|
D|--2-2-2-2-5-5-5--------------3*~-------------------------------------|
A|--0-0-0-0-3-3-3-5---5-5-5-0------------------------------------------|
E|----------------3---3-3-3-0------------------------------------------|
 pm . . . . . . . . . . . . . 



pre-chorus 00:59 x1
e|---------------------------------------------------------------------|
B|---------------------------------------------------------------------|
G|---------------------------------------------------------------------|
D|-5-5-5-5-5-5-5-5-7-7-7-7-7----------9--------------------------------|
A|-3-3-3-3-3-3-3-3-5-5-5-5-5-5---4----7--------------------------------|
E|---------------------------3---2-------------------------------------|



chorus 01:07       (were born again)
e|---------------------------------------------------------------------|
B|---------------------------------------------------------------------|
G|------------------1--------------------------------------------------|
D|-4---4\2---4--2------4--2--------------------------------------------|
A|-2---2\0---2--0------------------------------------------------------|
E|---------------------------------------------------------------------|



                                    (dead)
e|---------------------------------------------------------------------|
B|---------------------------------------------------------------------|
G|------------------------------------------2---1----------------------|
D|-4---4\2---4--2------2--2-------------------------4---2--------------|
A|-2---2\0---2--0------0--0----------2---------------------------------|
E|-----------------------------5--4--0---------------------------------|
                    pm .  .

repeat it   (forever we are)
e|---------------------------------------------------------------------|
B|---------------------------------------------------------------------|
G|------------------1--------------------------------------------------|
D|-4---4\2---4--2------4--2--------------------------------------------|
A|-2---2\0---2--0------------------------------------------------------|
E|---------------------------------------------------------------------|


                        (crucified to a dream)
e|---------------------------------------------------------------------|
B|---------------------------------------------------------------------|
G|------------------------------------ -2---1-----------2--1-----------|
D|-4---4\2---4--2------2--2--------------------4---2----------4--------|
A|-2---2\0---2--0------0--0----------2----------------2----------5-----|
E|-----------------------------5--4--0----------------0----------3-----|
                    pm .  .

intro 1 x1
intro 2 x3
verse x3
pre-chorus x1
chorus x1



interlude 1 03:09 x2
e|---------------------------------------------------------------------|
B|---------------------------------------------------------------------|
G|---------------------------------------------------------------------|
D|---------------------------------------------------------------------|
A|---0-3-2-0-5-2-0-3-2-0-5-2-0-3-2-5-----------------------------------|
E|---0-3-2-0-5-2-0-3-2-0-5-2-0-3-2-5-----------------------------------|
  pm . . . . . . . . . . . . . . . . . . 

on second time play this.
e|---------------------------------------------------------------------|
B|---------------------------------------------------------------------|
G|---------------------------------------------------------------------|
D|-------------------------------3*~-----------------------------------|
A|---0-3-2-0-5-2-0-3-2-0-5-2-2-0---------------------------------------|
E|---0-3-2-0-5-2-0-3-2-0-5-2-2-0---------------------------------------|
  pm . . . . . . . . . . . . . . 



interlude 2 03:25 
e|---------------------------------------------------------------------|
B|---------------------------------------------------------------------|
G|---------------------------------------------------------------------|
D|--5-4---7-4---5-4---7-4---5-4-7---5-4---7-4---5-4---7-4---5-4-2--2-2-|
A|--3-2---5-2---3-2---5-2---3-2-5---3-2---5-2---3-2---5-2---5-4-2--2-2-|
E|----------------------------------------------------------3-2-0--0-0-|
                                                                 pm . . .
repeat the palm muted second fret into the chorus

chorus x1


outro 1 04:15 repeat alot        
e|---------------------------------------------------------------------|
B|---------------------------------------------------------------------|
G|---------------------------------------------------------------------|
D|--------------------------------------------------------------3*~----|
A|--0-3-2-0-5-2-0-3-2-0-5-2-0-3-2-5-0-3-2-0-5-2-0-3-2-0-5-2-0----------|
E|------------------------------------------------------------4--------|
    

repeat outro 1 but with chords.




outro 2 05:10 repeat alot
e|---------------------------------------------------------------------|
B|---------------------------------------------------------------------|
G|---------------------------------------------------------------------|
D|---------------------------------------------------------------------|
A|---1-1-1-1-1-1-1-1-1-------------------------------------------------|
E|---1-1-1-1-1-1-1-1-1-------------------------------------------------|
  pm . . . . . . . . .

comment and rate please
            
Submit corrections

comments powered by Disqus
↑ Back to top | H.I.M Tabs for In The Nightside Of Eden. Lyrics for acoustic guitar and electric guitar. Tablatures and chords are parodies/interpretations of the original songs. You may use it for private study, scholarship, research or language learning purposes only