» » »

H.I.M, In The Nightside Of Eden Tabs (ver.3)

Artists:  A B C D E F G H I J K L M N O P Q R S T U V W X Y Z # 

In The Nightside Of Eden Tabs (ver.3)

H.I.M Tabs
Rating:
0/5 (0 votes)
In The Nightside Of Eden lessons Tabs too difficult? Try these video lessons and learn fast
                (Intro)
Band: HIM
Song Name: In The Nightside of Eden (Intro)

==From Low to High==

Elec. Gtrs. 1 & 3 tuned:

E A D G B E



#INTRO
#Elec. Gtr. 1 (clean-tone)

*
**
e|--8----7----5------|-------------------------|--------8--7----5---7--|-----------------------|
B|----------------8--|------8----7-------------|-----------------------|-----------------------|
G|-------------------|------------------7---5--|-----------------------|-----------------------|
D|-------------------|-------------------------|-----------------------|-----------------------|
A|-------------------|-------------------------|-----------------------|-----------------------|
E|-------------------|-------------------------|-----------------------|-----------------------|
 |                   |			       |		       |		       |
e|-------------------|-------------------------|-----------------------|-----------------------|
B|--------1----------|--------0----------------|--------1--------------|--------------------0--|
G|-------------------|-------------------------|-----------------------|---------0---2---------|
D|-----2-------------|-----0-------------------|-----2-----------------|------0----------------|
A|--0----------------|-------------------------|--0--------------------|-----------------------|
E|-------------------|--3----------------------|-----------------------|--3--------------------|


e|--8----7----5------|-------------------------|-------------------------------|-----------------------|
B|----------------8--|------8----7-------------|----------5---8-----5-------5--|--7---5----------------|
G|-------------------|------------------7------|--5---7-----------------7------|---------7-------------|
D|-------------------|-------------------------|-------------------------------|------------7----5~----|
A|-------------------|-------------------------|-------------------------------|-----------------------|
E|-------------------|-------------------------|-------------------------------|-----------------------|
 |                   |			       |		               |		       |
e|-------------------|-------------------------|-------------------------------|-----------------------|
B|--------1----------|--------0----------------|-------------------------------|-----------------------|
G|-------------------|-------------------------|-------------------------------|-----------------------|
D|-----2-------------|-----0-------------------|-------------------------------|-----------------------|
A|--0----------------|-------------------------|-------------------------------|-----------------------|
E|-------------------|--3----------------------|-------------------------------|-----------------------|

*Kybds. arr. for gtr.

**Chord symbols reflect implied harmony.

| ~  vibrato

==========================================================================================================

HAVE FUN WITH IT!
            
Submit corrections

comments powered by Disqus
↑ Back to top | H.I.M Tabs for In The Nightside Of Eden. Lyrics for acoustic guitar and electric guitar. Tablatures and chords are parodies/interpretations of the original songs. You may use it for private study, scholarship, research or language learning purposes only