>
 >
Heartkiller 2

Heartkiller 2 Guitar Tabs

H.I.M - Heartkiller 2 chords, tabs, tablatures, lyrics

Guitar lessons | Add/correct | Request | Top 50 tabs Artists:  A B C D E F G H I J K L M N O P Q R S T U V W X Y Z 0-9

Heartkiller 2 Guitar Tabs – H.I.M

CD, Sheet music, Poster

Do you like Heartkiller 2? Share with your friends now
Bass TabsChordsChords v2Chords v3TabsTabs v2Tabs v3UkuleleUkulele v2


Note: The rests and spacings are by no means meant to be 100% in time.
      However they are good enough for you to relate it to the song.
----------------------------------------------------------------------

[Intro] [Rhythm]
[0:05 - 0:19]

e|----------|
B|----------|
G|----------|
D|--8--5-8--|
A|--6--3-6--|
E|--6--3-6--|

e|-----------------------------------|
B|-----------------------------------|
G|-----------------------------------|
D|--8/10-10-10-10/13-13-13---8--5-8--|
A|--6/8--8--8--8/-11-11-11---6--3-6--|
E|--6/8--8--8--8/-11-11-11---6--3-6--|

e|-----------------------------------|
B|-----------------------------------|
G|-----------------------------------|
D|--8/10-10-10-10/13-13-13---8--5-8--|
A|--6/8--8--8--8/-11-11-11---6--3-6--|
E|--6/8--8--8--8/-11-11-11---6--3-6--|

e|-----------------------------------|
B|-----------------------------------|
G|-----------------------------------|
D|--8/10-10-10-10/13-13-13---8--5-8--|
A|--6/8--8--8--8/-11-11-11---6--3-6--|
E|--6/8--8--8--8/-11-11-11---6--3-6--|

e|-----------------------------------|
B|-----------------------------------|
G|-----------------------------------|
D|--8/10-10-10-10/13-13-13---8--5-8--|
A|--6/8--8--8--8/-11-11-11---6--3-6--|
E|--6/8--8--8--8/-11-11-11---6--3-6--|


[Intro] [Lead] {Fuzz & Octave}
[0:13 - 0:19]

e|----------------------------------------------------------|
B|-----13----------15br----------13-------------------------|
G|--10----10-13~-------15~----10----10-13~---12br-----------|
D|-----------------------------------------------13~---15~--|
A|----------------------------------------------------------|
E|----------------------------------------------------------|


[Verse 1]
[0:19 - 0:43]

e|----------------------------------------------------|
B|----------------------------------------------------|
G|-----------6-6-6-6-6-6-6-6--------------------------|
D|--5-5-8~--\6-6-6-6-6-6-6-6-6-6-6-6-6-6-6-6-8-8--5-5-|
A|--3-3-6~--\4-4-4-4-4-4-4-4-3-3-3-3-3-3-3-3-6-6--3-3-|
E|--3-3-6~-----------------------------------6-6--3-3-|
    . .

e|----------------------------------------------------------|
B|----------------------------------------------------------|
G|----------------------------------------------------------|
D|--1010101010101010--1010----------1010101010101010--108~--|
A|--8-8-8-8-8-8-8-8---8-8-------6-8-8-8-8-8-8-8-8-8---8-6~--|
E|--8-8-8-8-8-8-8-8---8-8---6-8-----8-8-8-8-8-8-8-8---8-6~--|
    . . . . . . . .   . .           . . . . . . . .   .

e|------------------------------------------------------|
B|------------------------------------------------------|
G|---6-6-6-6-6-6-6-6------------------------------------|
D|--\6-6-6-6-6-6-6-6-6-6-6-6-6-6-6-6-5~-------5~--5~----|
A|--\4-4-4-4-4-4-4-4-3-3-3-3-3-3-3-3-3~-------3~--3~----|
E|-----------------------------------3~-------3~--3~----|


[Chorus 1]
[0:44 - 1:08]

e|---------------------------------------------|
B|---------------------------------------------|
G|---------------------------------------------|
D|--10------13------6------6-6-----5--5---8-8--|
A|--8-(x16)-11(x16)-4(x16)-6-6-----3--3---6-6--|
E|--8-------11------4------4-4-----3--3---6-6--|

e|----------------------------------------|
B|----------------------------------------|
G|----------------------------------------|
D|--10------13------6------6-6-----5--5---|
A|--8-(x16)-11(x16)-4(x16)-6-6-----3--3---|
E|--8-------11------4------4-4-----3--3---|


[Post-Chorus 1] [Rhythm]
[1:09 - 1:15]

e|-----------------------------------|
B|-----------------------------------|
G|-----------------------------------|
D|--8/10-10-10-10/13-13-13---8--5-8--|
A|--6/8--8--8--8/-11-11-11---6--3-6--|
E|--6/8--8--8--8/-11-11-11---6--3-6--|

e|-----------------------------------|
B|-----------------------------------|
G|-----------------------------------|
D|--8/10-10-10-10/13-13-13---8--5-8--|
A|--6/8--8--8--8/-11-11-11---6--3-6--|
E|--6/8--8--8--8/-11-11-11---6--3-6--|


[Post-Chorus 1] [Lead] {Fuzz & Octave}
[1:09 - 1:18]

e|----------------------------------------------------------|
B|-----13----------15br----------13-------------------------|
G|--10----10-13~-------15~----10----10-13~---12br-----------|
D|-----------------------------------------------13~---15~--|
A|----------------------------------------------------------|
E|----------------------------------------------------------|


[Verse 2]
[1:15 - 1:41]

e|----------------------------------------------------------|
B|----------------------------------------------------------|
G|----------------------------------------------------------|
D|--1010101010101010--1010----------1010101010101010--108~--|
A|--8-8-8-8-8-8-8-8---8-8-------6-8-8-8-8-8-8-8-8-8---8-6~--|
E|--8-8-8-8-8-8-8-8---8-8---6-8-----8-8-8-8-8-8-8-8---8-6~--|
    . . . . . . . .   . .           . . . . . . . .   .

e|---------------------------------------------|
B|---------------------------------------------|
G|---6-6-6-6-6-6-6-6---------------------------|
D|--\6-6-6-6-6-6-6-6-6-6-6-6-6-6-6-6-8-8--5-5--|
A|--\4-4-4-4-4-4-4-4-3-3-3-3-3-3-3-3-6-6--3-3--|
E|-----------------------------------6-6--3-3--|

e|-----------------------------------------------------------|
B|-----------------------------------------------------------|
G|-----------------------------------------------------------|
D|--1010101010101010--1010---------------101010101010--108~--|
A|--8-8-8-8-8-8-8-8---8-8-------6-8-8-10-8-8-8-8-8-8---8-6~--|
E|--8-8-8-8-8-8-8-8---8-8---6-8----------8-8-8-8-8-8---8-6~--|
    . . . . . . . .   . .                . . . . . .   .

e|--------------------------------------------------------------------|
B|--------------------------------------------------------------------|
G|---6-6-6-6-6-6-6-6-----------------6-6-6-6-6-6-6-6------------------|
D|--\6-6-6-6-6-6-6-6-6-6-6-6-6-6-6-6-6-6-6-6-6-6-6-6-6-6-6-6-6-6-6-6--|
A|--\4-4-4-4-4-4-4-4-3-3-3-3-3-3-3-3-4-4-4-4-4-4-4-4-3-3-3-3-3-3-3-3--|
E|--------------------------------------------------------------------|

e|---------------|
B|---------------|
G|---------------|
D|--5~-----------|
A|--3~-----------|
E|--3~-----------|


[Chorus 2]
[1:41 - 2:08]

e|---------------------------------------------|
B|---------------------------------------------|
G|---------------------------------------------|
D|--10------13------6------6-6-----5--5---8-8--|
A|--8-(x16)-11(x16)-4(x16)-6-6-----3--3---6-6--|
E|--8-------11------4------4-4-----3--3---6-6--|

e|------------------------------------------------|
B|------------------------------------------------|
G|------------------------------------------------|
D|--10------13------6------6-6--------5~----10~---|
A|--8-(x16)-11(x16)-4(x16)-6-6--------3~----8-~---|
E|--8-------11------4------4-4--------3~----8-~---|


[Pre Solo]
[2:08 - 2:19]

e|------------------------------------------------|
B|------------------------------------------------|
G|------------------------------------------------|
D|--11111111111111111313131313131313---5~---10~---|
A|--8-8-8-8-8-8-8-8-1010101010101010---3~---8-~---|
E|-------------------------------------3~---8-~---|

e|------------------------------------------|
B|------------------------------------------|
G|------------------------------------------|
D|--11111111111111111313131313131313-13~----|
A|--8-8-8-8-8-8-8-8-1010101010101010-11~----|
E|-----------------------------------11~----|

            OR IT CAN BE PLAYED:

e|-----------------------------------------------|
B|-----------------------------------------------|
G|--6-6-6-6-6-6-6-6-8-8-8-8-8-8-8-8--------------|
D|--x-x-x-x-x-x-x-x-x-x-x-x-x-x-x-x---5~---10~---|
A|--4-4-4-4-4-4-4-4-6-6-6-6-6-6-6-6---3~---8-~---|
E|------------------------------------3~---8-~---|

e|-----------------------------------------|
B|-----------------------------------------|
G|--6-6-6-6-6-6-6-6-8-8-8-8-8-8-8-8--------|
D|--x-x-x-x-x-x-x-x-x-x-x-x-x-x-x-x-13~----|
A|--4-4-4-4-4-4-4-4-6-6-6-6-6-6-6-6-11~----|
E|----------------------------------11~----|


[Solo] [Lead] {Fuzz & Octave}
[2:25 - 2:36]

e|-----------------------------|
B|-------13----------15br------|
G|--x/10----10-13~-------15~---|
D|--x/-------------------------|
A|-----------------------------|
E|-----------------------------|

e|--------------------------------------------------------|
B|-----13----------15br------15br------17br------17br-----|
G|--10----10-13~-------15~-------15~-------17~-------17~--|
D|--------------------------------------------------------|
A|--------------------------------------------------------|
E|--------------------------------------------------------|
                  {---------------Wah-Wah---------------}


[Solo] [Rhythm]
[2:30 - 2:36]

e|----------------------|
B|----------------------|
G|----------------------|
D|--8~-------5~---------|
A|--6~-------3~---------|
E|--6~-------3~---------|


[Chorus 3] [Lead] {Fuzz & Octave}
[2:36 - 2:48]

e|---------------------------------------|
B|--18~~~~~~~~~~~~~18~~~~~~20~~~~~~~~~~--|
G|-----------------17b~~~~~--------------|
D|---------------------------------------|
A|---------------------------------------|
E|---------------------------------------|


[Chorus 3] [Rhythm]
[2:36 - 3:02]

e|---------------------------------------------|
B|---------------------------------------------|
G|---------------------------------------------|
D|--10------13------6------6-6-----5--5---8-8--|
A|--8-(x16)-11(x16)-4(x16)-6-6-----3--3---6-6--|
E|--8-------11------4------4-4-----3--3---6-6--|

e|--------------------------------------------------|
B|--------------------------------------------------|
G|--------------------------------------------------|
D|--10------13------6------6-6-----5--5---88-88-88--|
A|--8-(x16)-11(x16)-4(x16)-6-6-----3--3---x6-x6-x6--|
E|--8-------11------4------4-4-----3--3---x6-x6-x6--|


[Outro] [Lead] {Fuzz & Octave & I Use Wah}
[3:02 - 3:26]

e|-----------------------------------------------------------------------|
B|----------------------/13~~~~~~-13-11----------------------------------|
G|--/10~~~~~~-/13~~~~~~-----------------13~-13/15~~~~-15h17p15\12~-------|
D|------------------------------------------------------------------13~--|
A|-----------------------------------------------------------------------|
E|-----------------------------------------------------------------------|

e|-----------------------------------------18~-16-------18fb(20)~~~~\--|
B|--18~~~~~~~~18----20~~~~~~~~20(16)18~~~~--------18-16-------------\--|
G|--------------(17)---------------------------------------------------|
D|---------------------------------------------------------------------|
A|---------------------------------------------------------------------|
E|---------------------------------------------------------------------|


[Outro] [Rhythm]
[3:02 - 3:26]

e|----------------------------------------------|
B|----------------------------------------------|
G|----------------------------------------------|
D|--10------13------6------6------5--5---8-8PH--|
A|--8-(x16)-11(x16)-4(x16)-6(x7)--3--3---6------|
E|--8-------11------4------4------3--3---6------|
                                  .  .   .

e|----------------------------------------|
B|----------------------------------------|
G|----------------------------------------|
D|--10------13------6------6-6-----5--5---|
A|--8-(x16)-11(x16)-4(x16)-6-6-----3--3---|
E|--8-------11------4------4-4-----3--3---|



The lead outro isn't supposed to be lifted from the song like the rest of the tab.
I gave up trying to hear through the effects so went my own way.


--------------------------------------------------------
My notation is not going to be 100% technically correct.
A legend for what I mean:

.  - Palm Mute
\  - Slide Down
/  - Slide Up
~  - For single notes = vibrato / For chords = let ring
br - bend and release
fb - full bend and hold
b  - half bend and hold
x  - dead note
PH - Pinch Harmonic
h  - hammer on
p  - pull off





Comments


Popular H.I.M tabs & chords
Beyond Redemption Bass Tabs
Bury Me Deep Inside Your Heart Bass Tabs
Wicked Game Bass Tabs
Wickid Game Bass Tabs
Dying Song 2 Chords
Drawn And Quartered Tabs
Gone With The Sin 1 Tabs
In Love And Lonely 1 Tabs
Vampire Heart Tabs
Gone With The Sin Ukulele


Song lyrics



↑ Back to top | Tablatures and chords are parodies/interpretations of the original songs. You may use it for private study, scholarship, research or language learning purposes only
© 2014 AZChords.com Contact us | Privacy policy | DMCA | Add/correct tabs | Request tabs | Top 50 tabs