>
 >
Heartkiller 1

Heartkiller 1 Guitar Tabs

H.I.M - Heartkiller 1 chords, tabs, tablatures, lyrics

Guitar lessons | Add/correct | Request | Top 50 tabs Artists:  A B C D E F G H I J K L M N O P Q R S T U V W X Y Z 0-9

Heartkiller 1 Guitar Tabs – H.I.M

CD, Sheet music, Poster

Do you like Heartkiller 1? Share with your friends now
Bass TabsChordsChords v2Chords v3TabsTabs v2Tabs v3UkuleleUkulele v2
Band: HIM
Tuning: E Standard


Intro

E|--------------------------------|
B|--------------------------------|
G|--------------------------------|
D|--8-5-8--8/10-10-10-10/13-13-13-|
A|--6-3-6--6/8--8--8--8/11--11-11-|
E|--6-3-6--6/8--8--8--8/11--11-11-|

Intro Solo

E|---------------------------------------------------|
B|-----13---------15b-----------13-------------------|
G|--10----10-13--------15----10----10-13---12b-------|
D|---------------------------------------------13-15-|
A|---------------------------------------------------|
E|---------------------------------------------------|

Riff A

E|-----------------------------------------------------|
B|-----------------------------------------------------|
G|------------6-6-6-6-6-6-6-6-5-5-5-5-5-5-5-5----------|
D|------8--8--6-6-6-6-6-6-6-6-5-5-5-5-5-5-5-5-8-8--5-5-|
A|------6--6--4-4-4-4-4-4-4-4-3-3-3-3-3-3-3-3-6-6--3-3-|
E|--X-X-6--6----------------------------------6-6--3-3-|

Riff B

E|----------------------------------------------------------|
B|----------------------------------------------------------|
G|----------------------------------------------------------|
D|------------------------------------------------8--8-8--8-|
A|------------------------------6-8---------------6--6-6--6-|
E|--x-x-x-x-x-x-x-x-x-x-x-x-6-8-----x-x-x-x-x-x-x-6--6-6--6-|

E|-----------------------------------------------------|
B|-----------------------------------------------------|
G|--6-6-6-6-6-6-6-6-5-5-5-5-5-5-5-5--------------------|
D|--6-6-6-6-6-6-6-6-5-5-5-5-5-5-5-5-8-8-8-8------------|
A|--4-4-4-4-4-4-4-4-3-3-3-3-3-3-3-3-6-6-6-6------------|
E|----------------------------------6-6-6-6..----------|

Chorus

E|--------|--------|-------------------------------------|
B|--------|--------|-------------------------------------|
G|--10----|-8------|--6--6--6--6--6--6--6-6--6-----------|
D|--8-----|-6------|--4--4--4--4--4--4--6-6--6--3-3--3-6-|
A|--8..---|-6..----|--4--4--4--4--4--4--4-4--4--3-3--3-6-|

Riff B - 1:28 (2 new notes)

E|-----------------------------------------|
B|-----------------------------------------|
G|-----------------------------------------|
D|-----------------------------------3-5---|
A|------------------------------6-8--------|
E|--x-x-x-x-x-x-x-x-x-x-x-x-6-8------------|

Riff C

E|------------------------------------------------------|
B|------------------------------------------------------|
G|------------------------------------------------------|
D|--8--10--10-10-10-------------------------------------|
A|--6--8---8--8--8--------------------------------------|
E|--6--8---8--8--8/13-13-13-13-13-13-13-13-15-15-15-15--|

E|---------------------------------------------------------------------|
B|---------------------------------------------------------------------|
G|---------------------------------------------------------------------|
D|--8--10--10-10-10----------------------------------------------------|
A|--6--8---8--8--8-----------------------------------------------------|
E|--6--8---8--8--8/13-13-13-13-13-13-13-13-15-15-15-15-15-15-15-15-16--|

Solo

E|---------------------------------------------------------------------------|
B|-----13---------15b-----------13---------15b-----15b-----17b----17b----18--|
G|--10----10-13--------15----10----10-13-------15------15------17-----17-----|
D|---------------------------------------------------------------------------|
A|---------------------------------------------------------------------------|
E|---------------------------------------------------------------------------|

E|------------------------------------------------------|
B|--18-18-18-18-18-18-18-18..-17-17-17-17-17-17-18-18b--|
G|------------------------------------------------------|
D|------------------------------------------------------|
A|------------------------------------------------------|
E|------------------------------------------------------|

Outro Solo

E|--------------------------------------------------------|
B|--18b--18b-----------13b--11-9-13b--13b-11b-9-11b-11-8--|
G|-----------17-15-13-------------------------------------|
D|--------------------------------------------------------|
A|--------------------------------------------------------|
E|--------------------------------------------------------|

E|-------------------------------------------18b--|
B|--18b--18b-------20b--20b-----------18b-16------|
G|-----------17-15----------18-17-18--------------|
D|------------------------------------------------|
A|------------------------------------------------|
E|------------------------------------------------|





Comments


Popular H.I.M tabs & chords
Heartache Every Moment Bass Tabs
Wicked Game 2 Bass Tabs
In Joy And Sorrow 1 Chords
In The Arms Of Rain Chords
Your Sweet Six Six Six Chords
Ive Crossed Oceans Of Wine To Find You Tabs
Join Me 2 Tabs
Rebel Yell 1 Tabs
The Sacrement Tabs
Sweet Pandemonium Ukulele


Song lyrics



↑ Back to top | Tablatures and chords are parodies/interpretations of the original songs. You may use it for private study, scholarship, research or language learning purposes only
© 2014 AZChords.com Contact us | Privacy policy | DMCA | Add/correct tabs | Request tabs | Top 50 tabs