>
 >
Heartkiller

Heartkiller Guitar Tabs

H.I.M - Heartkiller chords, tabs, tablatures, lyrics

Guitar lessons | Add/correct | Request | Top 50 tabs Artists:  A B C D E F G H I J K L M N O P Q R S T U V W X Y Z 0-9

Heartkiller Guitar Tabs – H.I.M

CD, Sheet music, Poster

Do you like Heartkiller? Share with your friends now
Bass TabsChordsChords v2Chords v3TabsTabs v2Tabs v3UkuleleUkulele v2

                                                                             HIM
Rhythm Guitar



D#||-------|-------|-------|
A#||-------|-------|-------|
F#||-------|-------|-------|
C#||-------|-------|-------|
G#||-------|-------|-------|
D#||-------|-------|-------|


     part of the outro lick is missing                     
  E  E                                  E  E  E  E  E  E   
----------------------------------------------------------|
----------------------------------------------------------|
----------------------------------------------------------|
----------------------------------------------------------|
-------------------------------------------7--L--4--7--L--|
-------------------------------------------7--L--4--7--L--|


  I'll update the tab once i figure it out                          
  E                                        E  E  E  E   E   E   E   
-------------------------------------------------------------------|
-------------------------------------------------------------------|
-------------------------------------------------------------------|
-------------------------------------------------------------------|
--7s---------------------------------------9--9--9--9--12--12--12--|
--7s---------------------------------------9--9--9--9--12--12--12--|


  for now, enjoy this...cheerz!                       
  E                             E  E  E  E  E  E  E   
-----------------------------------------------------|
-----------------------------------------------------|
-----------------------------------------------------|
-----------------------------------------------------|
--------------------------------------7--L--4--7--L--|
--------------------------------------7--L--4--7--L--|


  E   E  E  E  E   E   E   E     E  E  E  E  E  E  E  E   
------------------------------|--------------------------|
------------------------------|--------------------------|
------------------------------|--------------------------|
------------------------------|--------------------------|
--7s--9--9--9--9--12--12--12--|-----------7--L--4--7--L--|
--7s--9--9--9--9--12--12--12--|-----------7--L--4--7--L--|


  E   E  E  E  E   E   E   E     E  E  E  E  E  E  E  E   
------------------------------|--------------------------|
------------------------------|--------------------------|
------------------------------|--------------------------|
------------------------------|--------------------------|
--7s--9--9--9--9--12--12--12--|-----------7--L--4--7--L--|
--7s--9--9--9--9--12--12--12--|-----------7--L--4--7--L--|


  E   E  E  E  E   E   E   E     E  E  E  E  E  E  E  E               
------------------------------|--------------------------|-----|-----|
------------------------------|--------------------------|-----|-----|
------------------------------|--------------------------|-----|-----|
------------------------------|--------------------------|-----|-----|
--7s--9--9--9--9--12--12--12--|-----------7--L--4--7--L--|-----|-----|
--7s--9--9--9--9--12--12--12--|-----------7--L--4--7--L--|-----|-----|


                       PM       PM                    
  E  E  E  E  E  E  E  E     E  E  E  E  E  E  E  E   
--------------------------|--------------------------|
--------------------------|--------------------------|
--------------------------|--------------------------|
--------------------------|--------------------------|
-----------------------0--|-----0--2--L--L--L--L--L--|
-----------------------0--|-----0--0--L--L--L--L--L--|


  E  E  E  E  E  E  E  E     E  E  E  E  E  E  E  E   
--------------------------|--------------------------|
--------------------------|--------------------------|
--------------------------|--------------------------|
--------------------------|--------------------------|
--5--5--5--5--5--5--5--5--|--4--4--4--4--4--4--4--4--|
--5--5--5--5--5--5--5--5--|--4--4--4--4--4--4--4--4--|


                             PM PM PM PM PM PM PM PM  
  E  E  E  E  E  E  E  E     E  E  E  E  E  E  E  E   
--------------------------|--------------------------|
--------------------------|--------------------------|
--------------------------|--------------------------|
--------------------------|--------------------------|
--7--7--------4--4--------|--4--4--4--4--4--4--4--4--|
--7--7--------4--4--------|--2--2--2--2--2--2--2--2--|


     PM PM                   PM PM PM PM PM PM PM PM  
  E  E  E  E  E  E  E  E     E  E  E  E  E  E  E  E   
--------------------------|--------------------------|
--------------------------|--------------------------|
--------------------------|--------------------------|
--------------------------|--------------------------|
-----4--4-----------7--9--|--4--4--4--4--4--4--4--0--|
-----2--2-----7--9--------|--2--2--2--2--2--2--2--0--|


     PM                                               
  E  E  E  E  E  E  E  E     E  E  E  E  E  E  E  E   
--------------------------|--------------------------|
--------------------------|--------------------------|
--------------------------|--------------------------|
--------------------------|--------------------------|
-----0--2--L--L--L--L--L--|--5--5--5--5--5--5--5--5--|
-----0--0--L--L--L--L--L--|--5--5--5--5--5--5--5--5--|


  E  E  E  E  E  E  E  E     W                   H        Q    E  E         
--------------------------|-------------------|----------------------|-----|
--------------------------|-------------------|----------------------|-----|
--------------------------|-------------------|----------------------|-----|
--------------------------|-------------------|----------------------|-----|
--4--4--4--4--4--4--4--4--|--2----------------|--L--------L----L-----|-----|
--4--4--4--4--4--4--4--4--|--0----------------|--L--------L----L-----|-----|


  E  E  E  E  E  E  E  E     E  E  E  E  E  E  E  E   
--------------------------|--------------------------|
--------------------------|--------------------------|
--------------------------|--------------------------|
--------------------------|--------------------------|
--4--4--4--4--4--4--4--4--|--4--4--4--4--4--4--4--4--|
--2--2--2--2--2--2--2--2--|--2--2--2--2--2--2--2--2--|


  E  E  E  E  E  E  E  E     E  E  E  E  E  E  E  E   
--------------------------|--------------------------|
--------------------------|--------------------------|
--------------------------|--------------------------|
--------------------------|--------------------------|
--7--7--7--7--7--7--7--7--|--7--7--7--7--7--7--7--7--|
--5--5--5--5--5--5--5--5--|--5--5--5--5--5--5--5--5--|


  E  E  E  E  E  E  E  E     E  E  E  E  E  E  E  E   
--------------------------|--------------------------|
--------------------------|--------------------------|
--------------------------|--------------------------|
--7--7--7--7--7--7--7--7--|--7--7--7--7--7--7--7--7--|
--5--5--5--5--5--5--5--5--|--5--5--5--5--5--5--5--5--|
--5--5--5--5--5--5--5--5--|--5--5--5--5--5--5--5--5--|


  E  E  E  E  E  E  E  E     E  E  E  E  E  Q    E     E  E  E  E  E  E  E  E   
--------------------------|-------------------------|--------------------------|
--------------------------|-------------------------|--------------------------|
--------------------------|-------------------------|--------------------------|
--------------------------|-------------------------|--------------------------|
--7--7-----------------4--|-----4--------4--7----L--|--4--4--4--4--4--4--4--4--|
--5--5-----------------4--|-----4--------4--7----L--|--2--2--2--2--2--2--2--2--|


  E  E  E  E  E  E  E  E     E  E  E  E  E  E  E  E   
--------------------------|--------------------------|
--------------------------|--------------------------|
--------------------------|--------------------------|
--------------------------|--------------------------|
--4--4--4--4--4--4--4--4--|--7--7--7--7--7--7--7--7--|
--2--2--2--2--2--2--2--2--|--5--5--5--5--5--5--5--5--|


  E  E  E  E  E  E  E  E     E  E  E  E  E  E  E  E   
--------------------------|--------------------------|
--------------------------|--------------------------|
--------------------------|--------------------------|
--------------------------|--7--7--7--7--7--7--7--7--|
--7--7--7--7--7--7--7--7--|--5--5--5--5--5--5--5--5--|
--5--5--5--5--5--5--5--5--|--5--5--5--5--5--5--5--5--|


  E  E  E  E  E  E  E  E     E  E  E  E  E  E  E  E   
--------------------------|--------------------------|
--------------------------|--------------------------|
--------------------------|--------------------------|
--7--7--7--7--7--7--7--7--|--------------------------|
--5--5--5--5--5--5--5--5--|--7--7-----------------4--|
--5--5--5--5--5--5--5--5--|--5--5-----------------4--|


  Heartkiller.............................                       
  E                                        E  E  E  E  E  E  E   
----------------------------------------------------------------|
----------------------------------------------------------------|
----------------------------------------------------------------|
----------------------------------------------------------------|
-------------------------------------------4--------------------|
-------------------------------------------4--------------------|


  E   E  E  E  E   E   E   E     E  E  E  E  E  E  E  E   
------------------------------|--------------------------|
------------------------------|--------------------------|
------------------------------|--------------------------|
------------------------------|--------------------------|
--7s--9--9--9--9--12--12--12--|-----------7--L--4--7--L--|
--7s--9--9--9--9--12--12--12--|-----------7--L--4--7--L--|


  E   E  E  E  E   E   E   E     E  E  E  E  E  E  E  E   
------------------------------|--------------------------|
------------------------------|--------------------------|
------------------------------|--------------------------|
------------------------------|--------------------------|
--7s--9--9--9--9--12--12--12--|-----------7--L--4--7--L--|
--7s--9--9--9--9--12--12--12--|-----------7--L--4--7--L--|


  PM PM PM PM PM PM PM PM       PM PM                 
  E  E  E  E  E  E  E  E     E  E  E  E  E  E  E  E   
--------------------------|--------------------------|
--------------------------|--------------------------|
--------------------------|--------------------------|
--------------------------|--------------------------|
--4--4--4--4--4--4--4--4--|-----4--4-----------7--9--|
--2--2--2--2--2--2--2--2--|-----2--2-----7--9--------|


  PM PM PM PM PM PM PM PM       PM                    
  E  E  E  E  E  E  E  E     E  E  E  E  E  E  E  E   
--------------------------|--------------------------|
--------------------------|--------------------------|
--------------------------|--------------------------|
--------------------------|--------------------------|
--4--4--4--4--4--4--4--0--|-----0--2--L--L--L--L--L--|
--2--2--2--2--2--2--2--0--|-----0--0--L--L--L--L--L--|


  E  E  E  E  E  E  E  E     E  E  E  E  E  E  E  E   
--------------------------|--------------------------|
--------------------------|--------------------------|
--------------------------|--------------------------|
--------------------------|--------------------------|
--5--5--5--5--5--5--5--5--|--4--4--4--4--4--4--4--4--|
--5--5--5--5--5--5--5--5--|--4--4--4--4--4--4--4--4--|


                             PM PM PM PM PM PM PM PM  
  E  E  E  E  E  E  E  E     E  E  E  E  E  E  E  E   
--------------------------|--------------------------|
--------------------------|--------------------------|
--------------------------|--------------------------|
--------------------------|--------------------------|
--7--7--------4--4--------|--4--4--4--4--4--4--4--4--|
--7--7--------4--4--------|--2--2--2--2--2--2--2--2--|


     PM PM                          PM PM PM PM PM PM  
  E  E  E  E  E  E  E  E     E   E  E  E  E  E  E  E   
--------------------------|---------------------------|
--------------------------|---------------------------|
--------------------------|---------------------------|
--------------------------|---------------------------|
-----4--4-----------7--9--|--9--11--4--4--4--4--4--0--|
-----2--2-----7--9--------|---------2--2--2--2--2--0--|


     PM                                               
  E  E  E  E  E  E  E  E     E  E  E  E  E  E  E  E   
--------------------------|--------------------------|
--------------------------|--------------------------|
--------------------------|--------------------------|
--------------------------|--------------------------|
-----0--2--L--L--L--L--L--|--5--5--5--5--5--5--5--5--|
-----0--0--L--L--L--L--L--|--5--5--5--5--5--5--5--5--|


  E  E  E  E  E  E  E  E     E  E  E  E  E  E  E  E   
--------------------------|--------------------------|
--------------------------|--------------------------|
--------------------------|--------------------------|
--------------------------|--------------------------|
--4--4--4--4--4--4--4--4--|--5--5--5--5--5--5--5--5--|
--4--4--4--4--4--4--4--4--|--5--5--5--5--5--5--5--5--|


  E  E  E  E  E  E  E  E     W                   H        Q    E  E   
--------------------------|-------------------|----------------------|
--------------------------|-------------------|----------------------|
--------------------------|-------------------|----------------------|
--------------------------|-------------------|----------------------|
--4--4--4--4--4--4--4--4--|--2----------------|--L--------L----L-----|
--4--4--4--4--4--4--4--4--|--0----------------|--L--------L----L-----|


  E  E  E  E  E  E  E  E     E  E  E  E  E  E  E  E   
--------------------------|--------------------------|
--------------------------|--------------------------|
--------------------------|--------------------------|
--------------------------|--------------------------|
--4--4--4--4--4--4--4--4--|--4--4--4--4--4--4--4--4--|
--2--2--2--2--2--2--2--2--|--2--2--2--2--2--2--2--2--|


  E  E  E  E  E  E  E  E     E  E  E  E  E  E  E  E   
--------------------------|--------------------------|
--------------------------|--------------------------|
--------------------------|--------------------------|
--------------------------|--------------------------|
--7--7--7--7--7--7--7--7--|--7--7--7--7--7--7--7--7--|
--5--5--5--5--5--5--5--5--|--5--5--5--5--5--5--5--5--|


  E  E  E  E  E  E  E  E     E  E  E  E  E  E  E  E   
--------------------------|--------------------------|
--------------------------|--------------------------|
--------------------------|--------------------------|
--7--7--7--7--7--7--7--7--|--7--7--7--7--7--7--7--7--|
--5--5--5--5--5--5--5--5--|--5--5--5--5--5--5--5--5--|
--5--5--5--5--5--5--5--5--|--5--5--5--5--5--5--5--5--|


  E  E  E  E  E  E  E  E     E  E  E  E  E  Q    E     E  E  E  E  E  E  E  E   
--------------------------|-------------------------|--------------------------|
--------------------------|-------------------------|--------------------------|
--------------------------|-------------------------|--------------------------|
--------------------------|-------------------------|--------------------------|
--7--7-----------------4--|-----4--------4--7----L--|--4--4--4--4--4--4--4--4--|
--5--5-----------------4--|-----4--------4--7----L--|--2--2--2--2--2--2--2--2--|


  E  E  E  E  E  E  E  E     E  E  E  E  E  E  E  E   
--------------------------|--------------------------|
--------------------------|--------------------------|
--------------------------|--------------------------|
--------------------------|--------------------------|
--4--4--4--4--4--4--4--4--|--7--7--7--7--7--7--7--7--|
--2--2--2--2--2--2--2--2--|--5--5--5--5--5--5--5--5--|


  E  E  E  E  E  E  E  E     E  E  E  E  E  E  E  E   
--------------------------|--------------------------|
--------------------------|--------------------------|
--------------------------|--------------------------|
--------------------------|--7--7--7--7--7--7--7--7--|
--7--7--7--7--7--7--7--7--|--5--5--5--5--5--5--5--5--|
--5--5--5--5--5--5--5--5--|--5--5--5--5--5--5--5--5--|


  E  E  E  E  E  E  E  E     E  E  E  E  E  E  E  E     H        E   Q    E   
--------------------------|--------------------------|-----------------------|
--------------------------|--------------------------|-----------------------|
--------------------------|--------------------------|-----------------------|
--7--7--7--7--7--7--7--7--|--------------------------|--6--------L--11----L--|
--5--5--5--5--5--5--5--5--|--7--7--------------------|--4--------L---9----L--|
--5--5--5--5--5--5--5--5--|--5--5--------------------|--4--------L---9----L--|


  H        Q       E  E  E  E  E  E  E  E     E  E  E  E  E  E  E  E   
----------------|--------------------------|--------------------------|
----------------|--------------------------|--------------------------|
----------------|--------------------------|--------------------------|
--L--------L----|--7--7--7--7--7--7--7--7--|--9--9--9--9--9--9--9--9--|
--L--------L----|--5--5--5--5--5--5--5--5--|--7--7--7--7--7--7--7--7--|
--L--------L----|--------------------------|--------------------------|


  E  E  E  E  E  E  E   E     W                   E  E  E  E  E  E  E  E   
---------------------------|-------------------|--------------------------|
---------------------------|-------------------|--------------------------|
---------------------------|-------------------|--------------------------|
--------6--L--L--L--L--11--|--L----------------|--7--7--7--7--7--7--7--7--|
--------4--L--L--L--L---9--|--L----------------|--5--5--5--5--5--5--5--5--|
--------4--L--L--L--L---9--|--L----------------|--------------------------|


  E  E  E  E  E  E  E  E     W                                               
--------------------------|-------------------|-----|-----|-----|-----|-----|
--------------------------|-------------------|-----|-----|-----|-----|-----|
--------------------------|-------------------|-----|-----|-----|-----|-----|
--9--9--9--9--9--9--9--9--|-------------------|-----|-----|-----|-----|-----|
--7--7--7--7--7--7--7--7--|--7----------------|-----|-----|-----|-----|-----|
--------------------------|--5----------------|-----|-----|-----|-----|-----|


              W                   W                   W                 
-----|-----|-------------------|-------------------|-------------------|
-----|-----|-------------------|-------------------|-------------------|
-----|-----|-------------------|-------------------|-------------------|
-----|-----|--9----------------|--L----------------|--6----------------|
-----|-----|--7----------------|--L----------------|--4----------------|
-----|-----|--7----------------|--L----------------|--4----------------|


  W                   E  E  E  E  E  E  E  E     E  E  E  E  E  E  E  E   
-------------------|--------------------------|--------------------------|
-------------------|--------------------------|--------------------------|
-------------------|--------------------------|--------------------------|
--L----------------|--------------------------|--------------------------|
--L----------------|--4--4--4--4--4--4--4--4--|--4--4--4--4--4--4--4--4--|
--L----------------|--2--2--2--2--2--2--2--2--|--2--2--2--2--2--2--2--2--|


  E  E  E  E  E  E  E  E     E  E  E  E  E  E  E  E   
--------------------------|--------------------------|
--------------------------|--------------------------|
--------------------------|--------------------------|
--------------------------|--------------------------|
--7--7--7--7--7--7--7--7--|--7--7--7--7--7--7--7--7--|
--5--5--5--5--5--5--5--5--|--5--5--5--5--5--5--5--5--|


  E  E  E  E  E  E  E  E     E  E  E  E  E  E  E  E   
--------------------------|--------------------------|
--------------------------|--------------------------|
--------------------------|--------------------------|
--7--7--7--7--7--7--7--7--|--7--7--7--7--7--7--7--7--|
--5--5--5--5--5--5--5--5--|--5--5--5--5--5--5--5--5--|
--5--5--5--5--5--5--5--5--|--5--5--5--5--5--5--5--5--|


  E  E  E  E  E  E  E  E     E  E  E  E  E  Q    E     E  E  E  E  E  E  E  E   
--------------------------|-------------------------|--------------------------|
--------------------------|-------------------------|--------------------------|
--------------------------|-------------------------|--------------------------|
--------------------------|-------------------------|--------------------------|
--7--7-----------------4--|-----4--------4--7----L--|--4--4--4--4--4--4--4--4--|
--5--5-----------------4--|-----4--------4--7----L--|--2--2--2--2--2--2--2--2--|


  E  E  E  E  E  E  E  E     E  E  E  E  E  E  E  E   
--------------------------|--------------------------|
--------------------------|--------------------------|
--------------------------|--------------------------|
--------------------------|--------------------------|
--4--4--4--4--4--4--4--4--|--7--7--7--7--7--7--7--7--|
--2--2--2--2--2--2--2--2--|--5--5--5--5--5--5--5--5--|


  E  E  E  E  E  E  E  E     E  E  E  E  E  E  E  E   
--------------------------|--------------------------|
--------------------------|--------------------------|
--------------------------|--------------------------|
--------------------------|--7--7--7--7--7--7--7--7--|
--7--7--7--7--7--7--7--7--|--5--5--5--5--5--5--5--5--|
--5--5--5--5--5--5--5--5--|--5--5--5--5--5--5--5--5--|


  E  E  E  E  E  E  E  E     E  E  E  E  E  E  E  E     E  E  E  E  E  Q    E   
--------------------------|--------------------------|-------------------------|
--------------------------|--------------------------|-------------------------|
--------------------------|--------------------------|-------------------------|
--7--7--7--7--7--7--7--7--|--------------------------|-------------------------|
--5--5--5--5--5--5--5--5--|--7--7-----------------4--|-----4--------4--7----L--|
--5--5--5--5--5--5--5--5--|--5--5-----------------4--|-----4--------4--7----L--|


  E  Q    E  E  Q    E      E   E   E   E   E   E   E   E   
------------------------|----------------------------------|
------------------------|----------------------------------|
------------------------|----------------------------------|
------------------------|--11--11--11--11--11--11--11--11--|
--4--7----L--4--7----L--|---9---9---9---9---9---9---9---9--|
--4--7----L--4--7----L--|----------------------------------|


   E   E   E   E   E   E   E   E      E   E   E   E   E   E   E   E   
----------------------------------|----------------------------------|
----------------------------------|----------------------------------|
----------------------------------|----------------------------------|
--11--11--11--11--11--11--11--11--|--14--14--14--14--14--14--14--14--|
---9---9---9---9---9---9---9---9--|--12--12--12--12--12--12--12--12--|
----------------------------------|----------------------------------|


   E   E   E   E   E   E   E   E     E  E  E  E  E  E  E  E   
----------------------------------|--------------------------|
----------------------------------|--------------------------|
----------------------------------|--------------------------|
--14--14--14--14--14--14--14--14--|--------------------------|
--12--12--12--12--12--12--12--12--|--5--5--5--5--5--5--5--5--|
----------------------------------|--5--5--5--5--5--5--5--5--|


  E  E  E  E  E  E  E  E     E  E  H        E  E     E  E  E  E  E  E  E  E   
--------------------------|-----------------------|--------------------------|
--------------------------|-----------------------|--------------------------|
--------------------------|-----------------------|--------------------------|
--------------------------|-----------------------|--------------------------|
--5--5--5--5--5--5--5--5--|--7--7--L--------L--4--|-----4--------4--7--L--L--|
--5--5--5--5--5--5--5--5--|--5--5--L--------L--4--|-----4--------4--7--L--L--|


   E   E   E   E   E   E   E   E      E   E   E   E   E   E   E   E   
----------------------------------|----------------------------------|
----------------------------------|----------------------------------|
----------------------------------|----------------------------------|
--11--11--11--11--11--11--11--11--|--11--11--11--11--11--11--11--11--|
---9---9---9---9---9---9---9---9--|---9---9---9---9---9---9---9---9--|
----------------------------------|----------------------------------|


   E   E   E   E   E   E   E   E      E   E   E   E   E   E   E   E   
----------------------------------|----------------------------------|
----------------------------------|----------------------------------|
----------------------------------|----------------------------------|
--14--14--14--14--14--14--14--14--|--14--14--14--14--14--14--14--14--|
--12--12--12--12--12--12--12--12--|--12--12--12--12--12--12--12--12--|
----------------------------------|----------------------------------|


  E  E  E  E  E  E  E  E     E  E  E  E  E  E  E  E     E  E  H        E  E   
--------------------------|--------------------------|-----------------------|
--------------------------|--------------------------|-----------------------|
--------------------------|--------------------------|-----------------------|
--------------------------|--------------------------|-----------------------|
--5--5--5--5--5--5--5--5--|--5--5--5--5--5--5--5--5--|--7--7--------------4--|
--5--5--5--5--5--5--5--5--|--5--5--5--5--5--5--5--5--|--5--5--------------4--|


  E  E  E  E  E  E  E  E    
--------------------------||
--------------------------||
--------------------------||
--------------------------||
-----4--------------------||
-----4--------------------||




Duration Legend
---------------
W - whole
H - half
Q - quarter
E - 8th
S - 16th
T - 32nd
X - 64th
. - note dotted
|-n-|  - n-tuplets


Tablature Legend
----------------
L - tied note
x - dead note
g - grace note
(n) - ghost note
> - accentuded note
NH - natural harmonic
AH - artificial harmonic
TH - tapped harmonic
SH - semi harmonic
PH - pitch harmonic
h - hammer on
p - pull off
b - bend
br - bendRelease
pb - preBend
pbr - preBendRelease
brb - bendReleaseBend
\n/ - tremolo bar dip
\n - tremolo bar dive
-/n - tremolo bar Release up
/n\ - tremolo bar inverted dip
/n - tremolo bar return
-\n - tremolo bar Release down
S - shift slide
s - legato slide
/ -  slide into from below or out of upwards
\ -  slide into from above or out of downwards
~ - vibrato
W - wide vibrato
tr - trill
TP - tremolo picking
T - tapping
S - slap
P - pop
< - fade in
^ - brush up
v - brush down





Comments


Popular H.I.M tabs & chords
The Sacrament 1 Bass Tabs
Killing Loneliness 3 Chords
Venus Doom 1 Chords
And Love Said No 1 Tabs
Circle Of Fear Tabs
Dark Light Tabs
Dead Lovers Lane 2 Tabs
Disarm Me With Your Loneliness Tabs
Wicked Game Tabs
Endless Dark Ukulele


Song lyrics



↑ Back to top | Tablatures and chords are parodies/interpretations of the original songs. You may use it for private study, scholarship, research or language learning purposes only
© 2014 AZChords.com Contact us | Privacy policy | DMCA | Add/correct tabs | Request tabs | Top 50 tabs