» » »

H.I.M, Cyanide Sun Tabs (ver.3)

Artists:  A B C D E F G H I J K L M N O P Q R S T U V W X Y Z # 

Cyanide Sun Tabs (ver.3)

H.I.M Tabs
 Rating:
4/5 (4 votes)
Cyanide Sun lessons Tabs too difficult? Try these video lessons and learn fast
                (Intro)
             Cyanide Sun - HIM
-------------------------------------------------------------------------------

Tuning: (B F# B E G# c#)

Intro:
c#|-------------------------------------------------------------------------|
G#|-------------------------------------------------------------------------|
E |-------------------------------------------------------------------------|
B |-------------------------------------------------------------------------|
F#|-2--2---5/7--9---2--2---5/7--9-10-9--5~----0~----------------------------|
B |-2--2------------2--2----------------5~----0~----------------------------|

This Plays behind:
c#|--------------------------------------------------------------------------|
G#|-7---5--------------------------------------------------------------------|
E |---------4---------------4-----------4------------------------------------|
B |-------------7---5---7-------7---5-7--------------------------------------|
F#|-------------------------------------------0~-----------------------------|
B |-------------------------------------------0~-----------------------------|

Verse:
   (Played Second Time)
c#|-------------------------------|----------------------------------------------------------|
G#|-------------------------------|----------------------------------------------------------|
E |-------------------------------|----------------------------------------------------------|
B |-------------7---2---5---7-----|--------------------------------7---2---5---7-------------|
F#|----2----5---5---0---3---5---2-|--9h10p9---7---5---4---2----5---5---0---3---5---2---2-4-5-|
B |----2----5-------------------2-|--9h10p9---7---5---4---2----5-------------------2---2-4-5-|
                                                                                    pm * * *
            Tearing each other apart...                  Separating souls...    lies
Pre-chorus
c#|--------------------------------------------------------|------------------------|
G#|--------------------------------------------------------|------------------------|
E |--------------------------------------------------------|------------------------|
B |-222222--------222222--------222222---------------------|------------------------|
F#|-000000-222222-000000-222222-000000-2----0----2---- x2 -|--4-5-9-----------------|
B |--------222222--------222222--------2----0----2---------|--4-5-9-----------------|
    ****** ****** ****** ****** ******
   I am   dead        a shadow      my love... dark          oh..love
Chorus:
c#|---------------------------------------------------------------------------------------|
G#|---------------------------------------------------------------------------------------|
E |---------------------------------------------------------------------------------------|
B |--9-----11----7-----2-------------9----11----7----2------------9----11----12-----------|
F#|--7-----9-----5-----0---0-2-3-----7----9-----5----0--0-2-3-----7----9-----10---7~--2---|
B |-------------------------------------------------------------------------------7~--2---|
   Emptiness....made..home          Erasing... dreams....    one last...   corpse..underneath

Intro
verse

Pre-chorus
c#|---------------------------------------------------------------------|
G#|---------------------------------------------------------------------|
E |---------------------------------------------------------------------|
B |-222222--------222222--------222222----------------------------------|
F#|-000000-222222-000000-222222-000000-2-0-2------4-5-9-----------------|
B |--------222222--------222222--------2-0-2------4-5-9-----------------|
    ****** ****** ****** ****** ******

Chorus

Solo:
ok, Linde's solo's are all improvs. He makes a few of them, then the band picks
the one they like best.
So, this won't be the same live. This is definitely not 100% either, but its a
shot.
c#|---12-12--12-12--12-12--12-12-12--12h15p12----------------------------------------------|
G#|---15b15--15b15--15b15--15b15-15b----------15b------------12~---------------------------|
E |------------------------------------------------14-14b-12-----14-12-12b-12-11-12-11-11--|
B |----------------------------------------------------------------------------------------|
F#|----------------------------------------------------------------------------------------|
B |----------------------------------------------------------------------------------------|

   ----15--12--------------------------------------|
   -----------15-12------15-14--13--12~~~~/--------|
   ------------------14----------------------------|
   ------------------------------------------------|
   ------------------------------------------------|
   ------------------------------------------------|

   --12-12--12-12--12------------------------------15--12-------------------------------|
   --15b15--15b15--15b--15-15b-15b-15-12-15b--------------15-12------15-14--13--12~~~~--|
   -----------------------------------------14--12---------------14---------------------|
   -------------------------------------------------------------------------------------|
   -------------------------------------------------------------------------------------|
   -------------------------------------------------------------------------------------|

   --12h14p12--12-----12h14p12-12----12h14p12------12h14p12------------15b----------------|
   ------------15bb------------15b------------15bb----------15bb15-12---------------------|
   ---------------------------------------------------------------------------------------|
   ---------------------------------------------------------------------------------------|
   ---------------------------------------------------------------------------------------|
   ---------------------------------------------------------------------------------------|

   --12h14p12------------------------------------------------------------------------|
   -----------15-12------------------------------------------------------------------|
   -----------------14b-12--12h14p12-----14-12---------------------------------------|
   ----------------------------------14---------14-12-12h14p12-----------------------|
   ------------------------------------------------------------14-12-12h14p12---2----|
   -----------------------------------------------------------------------------2----|

as i said before, this is def not 100%.

Outro: This part gets hard to hear when vox come in.
c#|------------------------------------------------------------------------------|
G#|----------------------------------------5--7--5-------------------------------|
E |--------------6-----------------9-----4----------4------6-----------------4---|
B |--2-4-6--9/11-------2-4-6/7\6---7-4-2-2------------9/11----2-4-6/7\6--2-4-2---|
F#|---------7/9---------------------------------------7/9------------------------|
B |------------------------------------------------------------------------------|

---------------5-----------------------------------------5------4--------------------------------|
-----------------5-------5-----6-----------6------------------5---5----6---------6---------------|
-------------------------4-2-4-----2-4-6-2---2-4-6/7\6-------------------2-4-6-2---2-4-6/7\6-----|
--2-4-6/7\6-9------9-2-4-------------------------------9----7-------9--------------------------9-|
------------7------7-----------------------------------7----5-------7--------------------------7-|
-------------------------------------------------------------------------------------------------|
                Underneath


Should've known how hard it is to stop tearing each other apart
Separating souls entwined with all these labyrinthine lies

I am dead to you, a shadow doomed
My love, forever in the dark
And of all untruths the truest is you
Too close to my heart

This emptiness I've made my home
Embracing memories of dreams long gone
One last caress from the corpse of love is all I want
Underneath the cyanide sun

We've sailed the seas of grief on a raft built with our tears
Looking for a way to disappear for a moment from our deepest fears

I'll be drowning you in this river of gloom
Forever in my heart

| /  slide up
| \  slide down
| h  hammer-on
| p  pull-off
| ~  vibrato
| +  harmonic
| x  Mute note
===============================================================================
            
Submit corrections

comments powered by Disqus
↑ Back to top | H.I.M Tabs for Cyanide Sun. Lyrics for acoustic guitar and electric guitar. Tablatures and chords are parodies/interpretations of the original songs. You may use it for private study, scholarship, research or language learning purposes only