» » »

H.I.M, Cyanide Sun Tabs (ver.2)

Artists:  A B C D E F G H I J K L M N O P Q R S T U V W X Y Z # 

Cyanide Sun Tabs (ver.2)

H.I.M Tabs
 Rating:
4/5 (4 votes)
Cyanide Sun lessons Tabs too difficult? Try these video lessons and learn fast
                (Intro)
HIM :  Cyanide Sun
Guitarist : Linde

e----------------------------------------------------------------------|
B----------------------------------------------------------------------|
G--------------3---------------3-4-3-----------------------------------|  X2
D-6-6-6-6----6----6-6-6-6----6--------2--4-----------------------------|
A-6-6-6-6--4------6-6-6-6--4----------2--4-----------------------------|
E-4-4-4-4---------4-4-4-4-------------0--2-----------------------------|


e----------------------------------------------------------------|
B----------------------------------------------------------------|
G---11-9---------4----------------11-9---------4-----------------|
D--------9-7-5-7---5--5-7-9------------9-7-5-7---5--5-7-9--------|
A-----------------------------2----------------------------2-----|
E-----------------------------2----------------------------2-----|

or play

e----------------------------------------------------------------|
B----------------------------------------------------------------|
G--11-9--------------------------11-9----------------------------|
D-------9-7------7-9-7-5-7-9-----------9-7-----7-9-7-5-7-9-------|
A-------------10--------------2-------------10---------------2---|
E-----------------------------2------------------------------2---|

I tab the whole song later

comments are welcome =)

HIM - 4-Live
            
Submit corrections

comments powered by Disqus
↑ Back to top | H.I.M Tabs for Cyanide Sun. Lyrics for acoustic guitar and electric guitar. Tablatures and chords are parodies/interpretations of the original songs. You may use it for private study, scholarship, research or language learning purposes only