» » »

Cyanide Sun Tabs (ver.1)

Artists:  A B C D E F G H I J K L M N O P Q R S T U V W X Y Z # 

Cyanide Sun Tabs (ver.1)

H.I.M
Rating:
0/5 (0 votes)

Hard to play? Try these video lessons and learn fast.
                (Intro)
Band: -H-I-M-

Beautiful song..

E|-----------|---------------|-------|
B|-----------|---------------|-------|
G|-----------|---------------|-------|
D|-6-6-------|-6-6-----------|-2~-4~-|
A|-4-4-----6-|-4-4-----6b(7)-|-2~-2~-|
E|-4-4-7h9---|-4-4-7h9-------|-0~-2~-|

Then:
E|------------------------------|
B|------------------------------|
G|-8-6--------------------------|
D|-----6--4-2--2-4/6-4-2-2-4-6~-|
A|------------------------------|
E|------------------------------|

I'll try to tab the whole song later..
PEACE!
            
Hard to play? Try these video lessons and learn fast. | Correct




comments powered by Disqus
↑ Back to top | Tablatures and chords are parodies/interpretations of the original songs. You may use it for private study, scholarship, research or language learning purposes only