>
 >
Salvation Is Here 1

Salvation Is Here 1 Guitar Tabs

Hillsongs - Salvation Is Here 1 chords, tabs, tablatures, lyrics

Guitar lessons | Add/correct | Request | Top 50 tabs Artists:  A B C D E F G H I J K L M N O P Q R S T U V W X Y Z 0-9

Salvation Is Here 1 Guitar Tabs – Hillsongs

CD, Sheet music, Poster

Do you like Salvation Is Here 1? Share with your friends now
Bass TabsBass Tabs v2ChordsChords v2Chords v3TabsTabs v2
SALVATION IS HERE
Hillsong “God He Reigns”
CD 1, Track 2
Tempo: 126

Guitar 1: Standard Tuning
Guitar 2: Standard Tuning

Intro 1:
   B
Guitar 1:
|--7---7---7---7----------6-------2-------------|
|--0---0---0---0----------0-------0-------------|
|--x---x---x---x----------x-------x-------------|
|--9---9---9---9----------8-------4-------------|
|-----------------------------------------------|
|-----------------------------------------------|
|Guitar 2:                                      |
|--7--7--7--7--7--7--7--7--7--7--7----7---------|
|--7--7--7--7--7--7--7--7--7--7--7----7---------|
|--x--x--x--x--x--x--x--x--x--x--x----x---------|
|--9--9--9--9--9--9--9--9--9--9—-9—---9---------|
|-----------------------------------------------|
|-----------------------------------------------|

Guitar 1:
|--7---7---7---7----------6-------2-------------|
|--0---0---0---0----------0-------0-------------|
|--x---x---x---x----------x-------x-------------|
|--9---9---9---9----------8-------4-------------|
|-----------------------------------------------|
|-----------------------------------------------|
|Guitar 2:                                      |
|--7--7--7--7--7--7--7--7--7--7--7----7---------|
|--7--7--7--7--7--7--7--7--7--7--7----7---------|
|--x--x--x--x--x--x--x--x--x--x--x----x---------|
|--9--9--9--9--9--9--9--9--9--9—-9—---9---------|
|-----------------------------------------------|
|-----------------------------------------------|

Guitar 1:
|--7---7---7---7----------6-------2-------------|
|--0---0---0---0----------0-------0-------------|
|--x---x---x---x----------x-------x-------------|
|--9---9---9---9----------8-------4-------------|
|-----------------------------------------------|
|-----------------------------------------------|
|Guitar 2:                                      |
|--7--7--7--7--7--7--7--7--7--7--7----7---------|
|--7--7--7--7--7--7--7--7--7--7--7----7---------|
|--x--x--x--x--x--x--x--x--x--x--x----x---------|
|--9--9--9--9--9--9--9--9--9--9—-9—---9---------|
|-----------------------------------------------|
|-----------------------------------------------|

Guitar 1:
|--7---7---7---7----------6-------2-------------|
|--0---0---0---0----------0-------0-------------|
|--x---x---x---x----------x-------x-------------|
|--9---9---9---9----------8-------4-------------|
|-----------------------------------------------|
|-----------------------------------------------|
|Guitar 2:                                      |
|--7--7--7--7--7--7--7--7--7--7--7----7---------|
|--7--7--7--7--7--7--7--7--7--7--7----7---------|
|--x--x--x--x--x--x--x--x--x--x--x----x---------|
|--9--9--9--9--9--9--9--9--9--9—-9—---9---------|
|-----------------------------------------------|
|-----------------------------------------------|

 Verse 1:
 Guitar 1:
  B     G#m          F#sus4     E
|-----------------------------------------------|
|-4-4-4-4--4--4--4------------------------------|
|-4-4-4-4--4--4--4--4--4--4--4--4--4--4--4------|
|-4-4-4-6--6--6--6--4--4--4--4--4--4--4--4------|
|-------------------4--4--4--4--2--2--2--2------|
|-----------------------------------------------|
|Guitar 2:                                      |
|-----------------------------------------------|
|--------7--------7----------7------------7-----|
|-----8-------8--------8---------9--8--9----8---|
|--9-------9----9----9----9----9----------------|
|-----------------------------------------------|
|-----------------------------------------------|
  God above all the world in motion

Guitar 1:
  B     G#m          F#sus4     E
|-----------------------------------------------|
|-4-4-4-4--4--4--4------------------------------|
|-4-4-4-4--4--4--4--4--4--4--4--4--4--4--4------|
|-4-4-4-6--6--6--6--4--4--4--4--4--4--4--4------|
|-------------------4--4--4--4--2--2--2--2------|
|-----------------------------------------------|
|Guitar 2:                                      |
|-----------------------------------------------|
|--------7--------7----------7------------7-----|
|-----8-------8--------8---------9--8--9----8---|
|--9-------9----9----9----9----9----------------|
|-----------------------------------------------|
|-----------------------------------------------|
 God above all my hopes and fears


 Guitar 1:
  B     G#m          F#sus4     E
|-----------------------------------------------|
|-4-4-4-4--4--4--4------------------------------|
|-4-4-4-4--4--4--4--4--4--4--4--4--4--4--4------|
|-4-4-4-6--6--6--6--4--4--4--4--4--4--4--4------|
|-------------------4--4--4--4--2--2--2--2------|
|-----------------------------------------------|
|Guitar 2:                                      |
|-----------------------------------------------|
|--------7--------7----------7------------7-----|
|-----8-------8--------8---------9--8--9-----8--|
|--9-------9----9----9----9----9----------------|
|-----------------------------------------------|
|-----------------------------------------------|
 And I don’t care what the world throws at me now

Guitar 1:
  G#m9                E
|---6---6---6---6---6---0---0---0---0---0-------|
|---4---4---4---4---4---0---0---0---0---0-------|
|---4---4---4---4---4---1---1---1---1---1-------|
|---4---4---4---4---4---2---2---2---2---2-------|
|---6---6---6---6---6---2---2---2---2---2-------|
|-----------------------0---0---0---0---0-------|
|Guitar 2:                                      |
|---------------4--4--4--4----------------------|
|---------------4--4--4--4---5--5--5--5--5------|
|---4---3-3/4---4--4--4--4---4--4--4--4--4------|
|---6---4—4/6---6--6--6--6---2--2--2--2--2------|
|-----------------------------------------------|
|-----------------------------------------------|
           It’s gonna be alright

 Intro 2:

 Guitar 1:
  B              G#m      E        F#
|--7---7---7---7----------6-------2-------------|
|--0---0---0---0----------0-------0-------------|
|--x---x---x---x----------x-------x-------------|
|--9---9---9---9----------8-------4-------------|
|-----------------------------------------------|
|-----------------------------------------------|
|Guitar 2:                                      |
|-----------------------------------------------|
|---4--4--4--4----------------------------------|
|---4--4--4--4-4--4--4--4--4---1--1--3--3-------|
|---4--4--4--4-6--6--6--6--6---2--2--4--4-------|
|---2--2--2--2-6--6--6--6--6---2--2--4--4-------|
|--------------4--4--4--4--4---0--0--2--2-------|

 Guitar 1:
|--7---7---7---7----------6-------2-------------|
|--0---0---0---0----------0-------0-------------|
|--x---x---x---x----------x-------x-------------|
|--9---9---9---9----------8-------4-------------|
|-----------------------------------------------|
|-----------------------------------------------|
|Guitar 2:                                      |
|-----------------------------------------------|
|---4--4--4--4----------------------------------|
|---4--4--4--4-4--4--4--4--4---1--1--3--3-------|
|---4--4--4--4-6--6--6--6--6---2--2--4--4-------|
|---2--2--2--2-6--6--6--6--6---2--2--4--4-------|
|--------------4--4--4--4--4---0--0--2--2-------|

Verse 2:
  B     G#m          F#sus4     E
|-----------------------------------------------|
|-4-4-4-4--4--4--4------------------------------|
|-4-4-4-4--4--4--4--4--4--4--4--4--4--4--4------|
|-4-4-4-6--6--6--6--4--4--4--4--4--4--4--4------|
|-------------------4--4--4--4--2--2--2--2------|
|-----------------------------------------------|
|Guitar 2:                                      |
|-----------------------------------------------|
|--------7--------7----------7------------7-----|
|-----8-------8--------8---------9--8--9----8---|
|--9-------9----9----9----9----9----------------|
|-----------------------------------------------|
|-----------------------------------------------|
  Hear the sound of the generations

  B     G#m          F#sus4     E
|-----------------------------------------------|
|-4-4-4-4--4--4--4------------------------------|
|-4-4-4-4--4--4--4--4--4--4--4--4--4--4--4------|
|-4-4-4-6--6--6--6--4--4--4--4--4--4--4--4------|
|-------------------4--4--4--4--2--2--2--2------|
|-----------------------------------------------|
|Guitar 2:                                      |
|-----------------------------------------------|
|--------7--------7----------7------------7-----|
|-----8-------8--------8---------9--8--9----8---|
|--9-------9----9----9----9----9----------------|
|-----------------------------------------------|
|-----------------------------------------------|
  Making loud our freedom song

  B     G#m          F#sus4     E
|-----------------------------------------------|
|-4-4-4-4--4--4--4------------------------------|
|-4-4-4-4--4--4--4--4--4--4--4--4--4--4--4------|
|-4-4-4-6--6--6--6--4--4--4--4--4--4--4--4------|
|-------------------4--4--4--4--2--2--2--2------|
|-----------------------------------------------|
|Guitar 2:                                      |
|-----------------------------------------------|
|--------7--------7----------7------------7-----|
|-----8-------8--------8---------9--8--9----8---|
|--9-------9----9----9----9----9----------------|
|-----------------------------------------------|
|-----------------------------------------------|
  All in all that the world would know Your Name

Guitar 1:
  G#m9                E
|---6---6---6---6---6---0---0---0---0---0-------|
|---4---4---4---4---4---0---0---0---0---0-------|
|---4---4---4---4---4---1---1---1---1---1-------|
|---4---4---4---4---4---2---2---2---2---2-------|
|---6---6---6---6---6---2---2---2---2---2-------|
|-----------------------0---0---0---0---0-------|
|Guitar 2:                                      |
|---------------4--4--4--4----------------------|
|---------------4--4--4--4---5--5--5--5--5------|
|---4---3-3/4---4--4--4--4---4--4--4--4--4------|
|---6---4—4/6---6--6--6--6---2--2--2--2--2------|
|-----------------------------------------------|
|-----------------------------------------------|
  It’s gonna be alright

Chorus:
 B                    E
|-----------------------------------------------|
|-4---4---4---4---------------------------------|
|-4---4---4---4---1----1----1---1---1-----------|
|-4---4---4---4---2----2----2---2---2-----------|
|-2---2---2---2---2----2----2---2---2-----------|
|-----------------0----0----0---0---0-----------|
  ‘Cause I know my God saved the day

     F#           G#m
|-----------------------------------------------|
|-----------------------------------------------|
|--3---3---3---3---4---4---4---4---4---4--------|
|--4---4---4---4---6---6---6---6---6---6--------|
|--4---4---4---4---6---6---6---6---6---6--------|
|--2---2---2---2---4---4---4---4---4---4--------|
  And I know His word never fails

           B        E             C#m ***fill gtr 2
|-----------------------------------------------|
|--4---4---4---4--0---0---0---0--5--5--5--9--9--|
|--4---4---4---4--1---1---1---1--6--6--6--9--9--|
|--4---4---4---4--2---2---2---2--6--6--6--9--9--|
|--2---2---2---2--2---2---2---2--4--4--4--7--7--|
|-----------------0---0---0---0-----------------|
 And I know my God made a way for me

*** guitar 2:
  C#m                                       E
|-----------------------------------------------|
|-----------------------------------------------|
|--6--6--6—-6/8--8--8—-8/9—-9/13-13-13-13-11-9-9|
|--x--x--x--x----x--x--x----x----x--x--x---x-x-x|
|--4--4--4—-4/6--6--6—-6/7—-7/11-11-11-11--9-7-7|
|-----------------------------------------------|

 E                back to intro 1 twice
|-----------------------------------------------|
|--0---0---0---0--------------------------------|
|--1---1---1---1--------------------------------|
|--2---2---2---2--------------------------------|
|--2---2---2---2--------------------------------|
|--0---0---0---0--------------------------------|
  Salvation is here

Repeat verse 1:
Chorus: 2x
 B                    E
|-----------------------------------------------|
|-4---4---4---4---------------------------------|
|-4---4---4---4---1----1----1---1---1-----------|
|-4---4---4---4---2----2----2---2---2-----------|
|-2---2---2---2---2----2----2---2---2-----------|
|-----------------0----0----0---0---0-----------|
  ‘Cause I know my God saved the day

     F#           G#m
|-----------------------------------------------|
|-----------------------------------------------|
|--3---3---3---3---4---4---4---4---4---4--------|
|--4---4---4---4---6---6---6---6---6---6--------|
|--4---4---4---4---6---6---6---6---6---6--------|
|--2---2---2---2---4---4---4---4---4---4--------|
  And I know His word never fails

           B        E             C#m ***fill gtr 2
|-----------------------------------------------|
|--4---4---4---4--0---0---0---0--5--5--5--9--9--|
|--4---4---4---4--1---1---1---1--6--6--6--9--9--|
|--4---4---4---4--2---2---2---2--6--6--6--9--9--|
|--2---2---2---2--2---2---2---2--4--4--4--7--7--|
|-----------------0---0---0---0-----------------|
 And I know my God made a way for me

*** guitar 2:
  C#m                                       E
|-----------------------------------------------|
|-----------------------------------------------|
|--6--6--6—-6/8--8--8—-8/9—-9/13-13-13-13-13-13-|
|--x--x--x--x----x--x--x----x----x--x--x--x-x-x-|
|--4--4--4—-4/6--6--6—-6/7—-7/11-11-11-11—11-11-|
|-----------------------------------------------|

 Bridge:
    G#m      B         E       C#m      G#m
|-----------------------------------------------|
|-----------------------------------------------|
|---13-------16--------9------13—-11/--13-------|
|----x--------x--------x-------x---x/---x-------|
|---11-------14--------7------11---9/--11-------|
|-----------------------------------------------|
|Guitar 2:                                      |
|----------------------9---------------11-------|
|----------------------9---------------12-------|
|----------------------9---------------13-------|
|---------------------11---------------13-------|
|-----------------------------------------------|
|-----------------------------------------------|

             B         E       C#m     G#m
|-----------------------------------------------|
|-----------------------------------------------|
|---13-------16--------9------13—-11/--13-------|
|----x--------x--------x-------x---x----x-------|
|---11-------14--------7------11---9/--11-------|
|-----------------------------------------------|
|Guitar 2:                                      |
|----------------------9---------------11-------|
|----------------------9---------------12-------|
|----------------------9---------------13-------|
|---------------------11---------------13-------|
|-----------------------------------------------|
|-----------------------------------------------|

             B                  E           C#m
|-----------------------------------------------|
|-----------------------------------------------|
|---13-------16--------9------13—-11/--13-------|
|----x--------x--------x-------x---x----x-------|
|---11-------14--------7------11---9/--11-------|
|-----------------------------------------------|
|Guitar 2: with wah wah pedal here                                     |
|--------------4------------------7-------------|
|--------------4------------------9-------------|
|--------------4------------------9-------------|
|-----------------------------------------------|
|-----------------------------------------------|
|-----------------------------------------------|
Salvation is here, salvation is here & He lives in me

             G#m    B             E           C#m
|-----------------------------------------------|
|-----------------------------------------------|
|---13-------16--------9------13—-11/--13-------|
|----x--------x--------x-------x---x----x-------|
|---11-------14--------7------11---9/--11-------|
|-----------------------------------------------|
|Guitar 2:                                      |
|--------------4------------------7-------------|
|--------------4------------------9-------------|
|--------------4------------------9-------------|
|-----------------------------------------------|
|-----------------------------------------------|
|-----------------------------------------------|
 Salvation is here, salvation that died just to set me free

            G#m      B            E          C#m
|-----------------------------------------------|
|-----------------------------------------------|
|---13-------16--------9------13—-11/--13-------|
|----x--------x--------x-------x---x----x-------|
|---11-------14--------7------11---9/--11-------|
|-----------------------------------------------|
|Guitar 2:                                      |
|--------------4------------------7-------------|
|--------------4------------------9-------------|
|--------------4------------------9-------------|
|-----------------------------------------------|
|-----------------------------------------------|
|-----------------------------------------------|
Salvation is here, salvation is here & He lives in me

             G#m               B         E
|-----------------------------------------------|
|-----------------------------------------------|
|---13-------16--------9------13—-11/--13-------|
|----x--------x--------x-------x---x----x-------|
|---11-------14--------7------11---9/--11-------|
|-----------------------------------------------|
|Guitar 2:                                      |
|--------------4------------------7-------------|
|--------------4------------------9-----0--0--0-|
|--------------4------------------9-----1--1--1-|
|---------------------------------------2--2--2-|
|---------------------------------------2--2--2-|
|---------------------------------------0--0--0-|
  Salvation is here, Jesus ‘cause You are alive

   E               C#m
|-----------------4----4----4---4---------------|
|--0----0----0----5----5----5---5---------------|
|--1----1----1----6----6----6---6---------------|
|--2----2----2----6----6----6---6---------------|
|--2----2----2----4----4----4---4---------------|
|--0----0----0----------------------------------|
  and You live in me

         B                 E
|-----------------------------------------------|
|--------4---4---4---4--------------------------|
|--------4---4---4---4----1---1---1---1---------|
|--------4---4---4---4----2---2---2---2---------|
|--------2---2---2---2----2---2---2---2---------|
|-------------------------0---0---0---0---------|
  Salvation is here

     E        F#                 G#m
|----------------------------------------------|
|---0---0--------------------------------------|
|---1---1-----3----3---3----3----4---4---4---4-|
|---2---2-----4----4---4----4----6---6---6---6-|
|---2---2-----4----4---4----4----6---6---6---6-|
|---0---0-----2----2---2----2----4---4---4---4-|
  Salvation is here and He lives in me

         B                E
|-----------------------------------------------|
|--------4---4---4---4--------------------------|
|--------4---4---4---4----1---1---1---1---------|
|--------4---4---4---4----2---2---2---2---------|
|--------2---2---2---2----2---2---2---2---------|
|-------------------------0---0---0---0---------|
  Salvation is here

    E         F#               G#m
|-----------------------------------------------|
|---0---0---------------------------------------|
|---1---1-----3----3---3----3----4---4---4---4--|
|---2---2-----4----4---4----4----6---6---6---6--|
|---2---2-----4----4---4----4----6---6---6---6--|
|---0---0-----2----2---2----2----4---4---4---4--|
 cause You are alive and You live in me

Chorus: Acapella
             B
|----------------------------------------------|
|------------4---------------------------------|
|----4-------4---------------------------------|
|----6-------4---------------------------------|
|----6-------2---------------------------------|
|----4-----------------------------------------|
  ‘Cause I know my God saved the day

|----------------------------------------------|
|----------------------------------------------|
|----------------------------------------------|
|----------------------------------------------|
|----------------------------------------------|
|----------------------------------------------|
  And I know His word never fails

|----------------------------------------------|
|----------------------------------------------|
|----------------------------------------------|
|----------------------------------------------|
|----------------------------------------------|
|----------------------------------------------|
 And I know my God made a way for me

Guitar 2: enter here
  C#m                                       E
|-----------------------------------------------|
|-----------------------------------------------|
|--6--6--6—-6/8--8--8—-8/9—-9/13-13-13-13-11-9-9|
|--x--x--x--x----x--x--x----x----x--x--x---x-x-x|
|--4--4--4—-4/6--6--6—-6/7—-7/11-11-11-11--9-7-7|
|-----------------------------------------------|
                              it’s gonna be alright

Chorus/Outro:
 B                    E
|-----------------------------------------------|
|-4---4---4---4---------------------------------|
|-4---4---4---4---1----1----1---1---1-----------|
|-4---4---4---4---2----2----2---2---2-----------|
|-2---2---2---2---2----2----2---2---2-----------|
|-----------------0----0----0---0---0-----------|
  ‘Cause I know my God saved the day

     F#           G#m
|-----------------------------------------------|
|-----------------------------------------------|
|--3---3---3---3---4---4---4---4---4---4--------|
|--4---4---4---4---6---6---6---6---6---6--------|
|--4---4---4---4---6---6---6---6---6---6--------|
|--2---2---2---2---4---4---4---4---4---4--------|
  And I know His word never fails

           B        E             C#m ***fill gtr 2
|-----------------------------------------------|
|--4---4---4---4--0---0---0---0--5--5--5--9--9--|
|--4---4---4---4--1---1---1---1--6--6--6--9--9--|
|--4---4---4---4--2---2---2---2--6--6--6--9--9--|
|--2---2---2---2--2---2---2---2--4--4--4--7--7--|
|-----------------0---0---0---0-----------------|
 And I know my God made a way for me

*** guitar 2:
  C#m                                       E
|-----------------------------------------------|
|-----------------------------------------------|
|--6--6--6—-6/8--8--8—-8/9—-9/13-13-13-13-11-9-9|
|--x--x--x--x----x--x--x----x----x--x--x---x-x-x|
|--4--4--4—-4/6--6--6—-6/7—-7/11-11-11-11--9-7-7|
|-----------------------------------------------|

         B                 E
|-----------------------------------------------|
|--------4---4---4---4--------------------------|
|--------4---4---4---4----1---1---1---1---------|
|--------4---4---4---4----2---2---2---2---------|
|--------2---2---2---2----2---2---2---2---------|
|-------------------------0---0---0---0---------|
  Salvation is here

     E        F#                  G#m
|----------------------------------------------|
|---0---0--------------------------------------|
|---1---1-----3----3---3----3----4---4---4---4-|
|---2---2-----4----4---4----4----6---6---6---6-|
|---2---2-----4----4---4----4----6---6---6---6-|
|---0---0-----2----2---2----2----4---4---4---4-|
  Salvation is here and He lives in me

         B                 E
|-----------------------------------------------|
|--------4---4---4---4--------------------------|
|--------4---4---4---4----1---1---1---1---------|
|--------4---4---4---4----2---2---2---2---------|
|--------2---2---2---2----2---2---2---2---------|
|-------------------------0---0---0---0---------|
  Salvation is here
    E         F#                 G#m       B (.)
|-----------------------------------------------|
|---0---0-----------------------------------4---|
|---1---1-----3----3---3----3----4---4---4—-4---|
|---2---2-----4----4---4----4----6---6---6--4---|
|---2---2-----4----4---4----4----6---6---6--2---|
|---0---0-----2----2---2----2----4---4---4------|
 Cause You are alive and You live in me

This is not 100% accurate I tab it out from Hillsong God He Reigns album….there’s some 
if you follow the Hillsong United Version and I can tab it out and play easily than this one.





Comments


Popular Hillsongs tabs & chords
Heart Of Worship Chords
I Could Sing Of Your Love 1 Chords
Love Like Fire 2 Chords
One Thing Chords
Run Chords
Stronger 2 Chords
Before The Throne Of God Above Tabs
I Will Exalt You 2 Tabs
The Wonder Of Your Love Intro Tabs
All The Heavens Ukulele


Song lyrics



↑ Back to top | Tablatures and chords are parodies/interpretations of the original songs. You may use it for private study, scholarship, research or language learning purposes only
© 2014 AZChords.com Contact us | Privacy policy | DMCA | Add/correct tabs | Request tabs | Top 50 tabs