» » »

Hillsongs, Salvation Is Here Tabs (ver.1)

Artists:  A B C D E F G H I J K L M N O P Q R S T U V W X Y Z # 

Salvation Is Here Tabs (ver.1)

Hillsongs Tabs
Rating:
0/5 (0 votes)
Salvation Is Here lessons Tabs too difficult? Try these video lessons and learn fast
                "Salvation is here" (bass part)

INTRO:  B~~~~

G-------------------------------------------------|
D---9-9-9-9-9-9-9-9\----9-9-9-9-9-9-9-9-9-9-------|
A-------------------------------------------------|
E-------------------------------------------------|

VERSE:  B - G#m - F - E

G----------------------------------------------------|
D----9-9-9-9-9-9-------------------------------------|
A----------------11-11-11-11-9-9-9-9-9-7-7-7-7-7-----|
E----------------------------------------------------|


        G#m              E
 Now.....     it's gonna be alright......yeah!!!
G----------------------------------------------------|
D----------------------------------------------------|
A----------------------------------------------------|
E---4-4-4-4-4-4-4----0-0-0-0-0-0-0-------------------|


Before 2nd verse do chords B - E - F# - G#m


CHORUS:

        B         E        F#         G#m
Coz I know my......

        B         E                     C#m        E
And I know my......   God made a way for me


Salvation is here..... ( do intro chords )

ADLIB:   G#m - B - E - C#m


Salavation is here.........


G----------------------------------------------|
D-----------9-9-9-11-11-11-9-9-9-------9-------|
A-—11-11-11----------------------11-11---11----|
E----------------------------------------------|


G----------------------------------------------|
D-----------------------11-11-11-9-9-----------|
A--------11-11-11-9-9-9--------------9-9-------|
E—-7-7-7---------------------------------------|


G----------------------------------------------|
D-----------------9-9-9----------9-9-----------|
A—-7-7-7-11-11-11-------11-11-11-----11-11-----|
E----------------------------------------------|


G-----------------11-11-11---------------------|
D--------------------------11-11-11-9-9--------|
A--------11-11-11-----------------------9-9----|
E—-9-9-9---------------------------------------|

Salvation is here..... salvation that died....


BRIDGE:
              B - E - F# - G#m
Salvation is here!!

OUTRO: (do intro chords)


I don't have a guitar when I was doing this. Just try to improve what we got here.

Let's Rock!!!! For Christ's Glory!!!!
God bless you!!!!
            
Submit corrections

comments powered by Disqus
↑ Back to top | Hillsongs Tabs for Salvation Is Here. Lyrics for acoustic guitar and electric guitar. Tablatures and chords are parodies/interpretations of the original songs. You may use it for private study, scholarship, research or language learning purposes only