» » »

Salvation Is Here Bass tabs (ver.2)

Artists:  A B C D E F G H I J K L M N O P Q R S T U V W X Y Z # 

Salvation Is Here Bass tabs (ver.2)

Hillsongs
Rating:
0/5 (0 votes)

Hard to play? Try these video lessons and learn fast.
                SALVATION IS HERE
Hillsong “God He Reigns”
CD 1, Track 2
Tempo: 126

Regards to Bahrain Father's House Praise and Worship Team...

Intro 1:
 B
|-----------------------------------------------|
|-----------------------------------------------|
|-----------------------------------7h9-----7h9-|
|-8—-8—-8--8--8--8--8—-8\---8-8-8-8------8-8----|

|-----------------------------------------------|
|-----------------------------------------------|
|----------------------------------7h9------7h9-|
|-8—-8—-8--8--8--8--8—8\---8-8-8-8------8-8-----|

|-----------------------------------------------|
|-----------------------------------------------|
|----------------------------------7h9------7h9-|
|-8—-8—-8--8--8--8--8—8\---8-8-8-8------8-8-----|

|-----------------------------------------------|
|-----------------------------------------------|
|----------------------------------7h9------7h9-|
|-8—-8—-8--8--8--8--8—8\---8-8-8-8------8-8-----|

Verse 1:
   B     G#m          F#sus4     E
|-----------------------------------------------|
|-----------------------------------------------|
|-----------------------------------------------|
|--7--7--7--7--4--4--4---2--2--2---0--0---------|
  God above all the world in motion

  B     G#m          F#sus4     E
|-----------------------------------------------|
|-----------------------------------------------|
|-----------------------------------------------|
|--7--7--7--7--4--4--4---2--2--2---0--0---------|
 God above all my hopes and fears

  B     G#m          F#sus4     E
|-----------------------------------------------|
|-----------------------------------------------|
|-----------------------------------------------|
|--7--7--7--7--4--4--4---2--2--2---0--0---------|
  And I don’t care what the world throws at me

 

   G#m9                E
|-----------------------------------------------|
|-----------------------------------------------|
|-----------------------------------------------|
|--0-2/4---0-2/4---0-2/4\2---0--0--0--0---------|
  Now……          It’s gonna be alright

 Intro 2:
  B          B/G#m     E   F#
|-----------------------------------------------|
|-----------------------------------------------|
|--2--2--2---2--2--2----------------------------|
|----------------------0---2---2—-2---4--4------|

  B          B/G#m     E   F#
|-----------------------------------------------|
|-----------------------------------------------|
|--2--2--2---2--2--2----------------------------|
|----------------------0---2---2—-2---4--4------|

Verse 2:
  B     G#m          F#sus4     E
|-----------------------------------------------|
|-----------------------------------------------|
|-----------------------------------------------|
|--7--7--7--7--4--4--4---2--2--2---0--0---------|
  Hear the sound of the generations

  B     G#m          F#sus4     E
|-----------------------------------------------|
|-----------------------------------------------|
|-----------------------------------------------|
|--7--7--7--7--4--4--4---2--2--2---0--0---------|
  Making loud our freedom song

  B     G#m          F#sus4     E
|-----------------------------------------------|
|-----------------------------------------------|
|-----------------------------------------------|
|--7--7--7--7--4--4--4---2--2--2---0--0---------|
  All in all that the world would know Your 

   G#m9                E
|-----------------------------------------------|
|-----------------------------------------------|
|-----------------------------------------------|
|--0-2/4----0-2/4----0-2/4\2-----0-0--0-0-------|
   Name…………………..     It’s gonna be alright



Chorus 1:
 B                    E 
|-----------------------------------------------|
|-----------------------------------------------|
|-2-----2---2---2-------------------------------|
|-------------------0-----0---0---0-------------|
  ‘Cause I know my God saved the day

     F#           G#m
|-----------------------------------------------|
|-----------------------------------------------|
|-----------------------------------------------|
|--2-----2---2---2----4---4\--/4---4------------|
  And I know His word never fails

           B        E             C#m ***fill gtr 2     
|-----------------------------------------------|
|-----------------------------------------------|
|-2---2--2--2---------------4—4\2/4—4\2/4--4----|
|---------------0---0--0--0------------------0-0|
 And I know my God made a way for me

|-----------------------------------------------|
|-----------------------------------------------|
|-----------------------------------7h9-----7h9-|
|-8—-8—-8--8--8--8--8—-8\---8-8-8-8------8-8----|
 Salvation is here

|-----------------------------------------------|
|-----------------------------------------------|
|------------------------12-12-11-11-12-12-14-14|
|-8—-8—-8--8--8--8--8—8\------------------------|

|-----------------------------------------------|
|-----------------------------------------------|
|--12-12-11-11-12-12--11-11-7-------------------|
|------------------------------7----------------|

Verse 3:
   B     G#m          F#sus4     E
|-----------------------------------------------|
|-----------------------------------------------|
|-----------------------------------------------|
|--7--7--7--7--4--4--4---2--2--2---0--0---------|
  God above all the world in motion

  B     G#m          F#sus4     E
|-----------------------------------------------|
|-----------------------------------------------|
|-----------------------------------------------|
|--7--7--7--7--4--4--4---2--2--2---0--0---------|
 God above all my hopes and fears

  B     G#m          F#sus4     E
|-----------------------------------------------|
|-----------------------------------------------|
|-----------------------------------------------|
|--7--7--7--7--4--4--4---2--2--2---0--0---------|
  And I don’t care what the world throws at me

 

   G#m9                E
|-----------------------------------------------|
|-----------------------------------------------|
|-----------------------------------------------|
|--0-2-2/4---0-2-2/4---4-4-4-4-----0-0--0-0-----|
  Now……          It’s gonna be alright

Chorus 2:
 B                    E 
|-----------------------------------------------|
|-----------------------------------------------|
|-2—2\---2---2---2------------------------------|
|-------------------0-----0---0---0-------------|
  ‘Cause I know my God saved the day

     F#           G#m
|-----------------------------------------------|
|-----------------------------------------------|
|-----------------------------------------------|
|--2—2/---2---2---2----4—4\---4---4---4---------|
  And I know His word never fails

           B        E             C#m ***fill gtr 2     
|-----------------------------------------------|
|-----------------------------------------------|
|-2—2\-2--2--2--------------4—4\2/4—4\2/4--4----|
|---------------0---0--0--0------------------0-0|
 And I know my God made a way for me

Chorus:
 B                    E 
|-----------------------------------------------|
|-----------------------------------------------|
|-2/-----2---2---2------------------------------|
|-------------------0-----0---0---0-------------|
  ‘Cause I know my God saved the day

     F#           G#m
|-----------------------------------------------|
|-----------------------------------------------|
|-----------------------------------------------|
|--2/----2---2---2----4\----4---4---4-----------|
  And I know His word never fails

           B        E             C#m ***fill gtr 2     
|-----------------------------------------------|
|-----------------------------------------------|
|-2---2--2--2---------------4—4\2/4—4\2/4--4----|
|---------------0---0--0--0------------------0-0|
 And I know my God made a way for me

 Bridge:
    G#m      
|-----------------------------------------------|
|-------------9-9-9-9-11-11-11-11-9-9-9-9-------|
|11-11-11-11----------------------------11-11-11|
|-----------------------------------------------|
 Salvation is here
 
  B             E                           C#m     
|-----------------------------------------------|
|-----------------------------------------------|
|---------11-11-----------14-14-11-11-----14----|
|-9-9-9-9------12-12-12-12-----------12-12--9-9-|

            G#m      
|-----------------------------------------------|
|-----------------------------------------------|
|------------11-11-11-11-14-14-14-14-11-11-14-14|
|-9-9-9-9-9-9-----------------------------------|

                 
|-----------------------------------------------|
|----13-13-13-13-11-11-11-11--------------------|
|----------------------------14-14-14-14--------|
|-----------------------------------------------|

  G#m
|-----------------------------------------------|
|-------------9-9-9-9-11-11-11-11-9-9-9-9-------|
|11-11-11-11----------------------------11-11-11|
|-----------------------------------------------|
        Ohhh…ohhhh
 
  B            E                            C#m 
|-----------------------------------------------|
|-----------------------------------------------|
|---------11-11-----------14-14-11-11-----14----|
|-9-9-9-9------12-12-12-12-----------12-12--9-9-|

     
             G#m
|-----------------------------------------------|
|-----------------------------------------------|
|------------11-11-11-11-14-14-14-14-11-11-14-14|
|-9-9-9-9-9-9-----------------------------------|

             G#m    B             E           C#m 
|-----------------------------------------------|
|----13-13-13-13-11-11-11-11--------------------|
|----------------------------14-14-14-14--------|
|-----------------------------------------------|

    G#m      
|-----------------------------------------------|
|-------------9-9-9-9-11-11-11-11-9-9-9-9-------|
|11-11-11-11----------------------------11-11-11|
|-----------------------------------------------|
 Salvation is here, 

  B             E                           C#m     
|-----------------------------------------------|
|-----------------------------------------------|
|---------11-11-----------14-14-11-11-----14----|
|-9-9-9-9------12-12-12-12-----------12-12--9-9-|
                     Salvation is here, 

            G#m      
|-----------------------------------------------|
|-----------------------------------------------|
|------------11-11-11-11-14-14-14-14-11-11-14-14|
|-9-9-9-9-9-9-----------------------------------|
  and He lives in me
                 
|-----------------------------------------------|
|----13-13-13-13-11-11-11-11--------------------|
|----------------------------14-14-14-14--------|
|-----------------------------------------------|

    G#m      
|-----------------------------------------------|
|-------------9-9-9-9-11-11-11-11-9-9-9-9-------|
|11-11-11-11----------------------------11-11-11|
|-----------------------------------------------|
 Salvation is here, 

  B             E                           C#m     
|-----------------------------------------------|
|-----------------------------------------------|
|---------11-11-----------14-14-11-11-----14----|
|-9-9-9-9------12-12-12-12-----------12-12--9-9-|
                     Salvation that died, 
            G#m      
|-----------------------------------------------|
|-----------------------------------------------|
|------------11-11-11-11-14-14-14-14-11-11-14-14|
|-9-9-9-9-9-9-----------------------------------|
  just to set me free
                 
|-----------------------------------------------|
|----13-13-13-13-11-11-11-11--------------------|
|----------------------------14-14-14-14--------|
|-----------------------------------------------|

|-----------------------------------------------|
|-----------------------------------------------|
|--------------2-2-2-2-4-4-4-4-4-4-2-2-2-2------|
|--4-4-4-4-4-4----------------------------------|
  Salvation is here

|-----------------------------------------------|
|-----------------------------------------------|
|----------2-2-2------------------2-2-2---------|
|--0-0-0-0-------4-4-4-4--0-0-0-0------4-4-4-4--|
 Salvation is here and He lives in me


|-----------------------------------------------|
|-----------------------------------------------|
|----------4-4-4-4-6-6-6-6-4-4-4-4-2-2-2-2------|
|--4-4-4-4--------------------------------0-0-0-|
  Salvation is here, Jesus ‘cause You are alive

   E               C#m
|-----------------------------------------------|
|-----------------------------------------------|
|----------------4--4--4--4--4--4--4--4---------|
|--0-0-0-0-0-0-0--------------------------------|
 and You live in me

         B                 E
|-----------------------------------------------|
|-----------------------------------------------|
|--2--2--2--2--2--2--2--------------------------|
|-----------------------0--0--0--0--0--0--0—-0--|
  Salvation is here

     E        F#                 G#m
|-----------------------------------------------|
|-----------------------------------------------|
|-----------------------------------------------|
|---0---0-----2----2---2----2----4---4---4---4--|
  Salvation is here and He lives in me

         B                E
|-----------------------------------------------|
|-----------------------------------------------|
|--2---2---2---2---2---2------------------------|
|-------------------------0---0---0---0---0---0-|
  Salvation is here

    E         F#               G#m
|-----------------------------------------------|
|-----------------------------------------------|
|-----------------------------------------------|
|---0---0-----2----2---2----2----4---4---4---4--|
 cause You are alive and You live in me

Chorus: Acapella
             B
|-----------------------------------------------|
|-----------------------------------------------|
|-----------2\----------------------------------|
|----4------------------------------------------|
  ‘Cause I know my God saved the day

|----------------------------------------------|
|----------------------------------------------|
|----------------------------------------------|
|----------------------------------------------|
  And I know His word never fails

|----------------------------------------------|
|----------------------------------------------|
|----------------------------------------------|
|----------------------------------------------|
 And I know my God made a way for me

Guitar 2: enter here  
  C#m                                       E                             
|-----------------------------------------------|
|-----------------------------------------------|
|--4—-4\--/4—-4\--/4—4\----9-9-9-9-9-9-9—9-9-9--|
|-----------------------------------------------|
                              it’s gonna be alright

B                    E 
|-----------------------------------------------|
|-----------------------------------------------|
|-2/-----2---2---2------------------------------|
|-------------------0-----0---0---0-------------|
  ‘Cause I know my God saved the day

     F#           G#m
|-----------------------------------------------|
|-----------------------------------------------|
|-----------------------------------------------|
|--2/----2---2---2----4\----4---4---4-----------|
  And I know His word never fails

           B        E             C#m ***fill gtr 2     
|-----------------------------------------------|
|-----------------------------------------------|
|-2---2--2--2---------------4—4\2/4—4\2/4--4----|
|---------------0---0--0--0------------------0-0|
 And I know my God made a way for me

         B                 E
|-----------------------------------------------|
|-----------------------------------------------|
|--2---2---2\---2---2---2\----------------------|
|--------------------------0---0---0---0--0---0-|
  Salvation is here

     E        F#                  G#m
|-----------------------------------------------|
|-----------------------------------------------|
|-----------------------------------------------|
|--0---0-----2----2---2\----2----4---4---4\---4-|
  Salvation is here and He lives in me

         B                 E
|-----------------------------------------------|
|-----------------------------------------------|
|---2—-2-—2\---2---2---2\-----------------------|
|-------------------------0---0---0\--0---0---0\|
  Salvation is here, Jesus
    E         F#                 G#m       B (.) 
|-----------------------------------------------|
|-----------------------------------------------|
|-----------------------------------------2--2--|
|--0---0---0--2----2\--2----2---4---4\--4-------|
 Cause You are alive and You live in me



not accurate so corrections accepted....
            
Hard to play? Try these video lessons and learn fast. | Correct




comments powered by Disqus
↑ Back to top | Tablatures and chords are parodies/interpretations of the original songs. You may use it for private study, scholarship, research or language learning purposes only