» » »

Hillsongs, Salvation Is Here Bass tabs (ver.1)

Artists:  A B C D E F G H I J K L M N O P Q R S T U V W X Y Z # 

Salvation Is Here Bass tabs (ver.1)

Hillsongs Tabs
 Rating:
4/5 (4 votes)
Salvation Is Here lessons Tabs too difficult? Try these video lessons and learn fast
1
                Hillsong United
Salvation Is Here

Tuning: Bass Standard EADG

Intro:

at time 0:13 (x2)
G|-------------------------|
D|-------------------------|
A|-7/14-14-14-14-14-12-14--|
E|-------------------------|
then
G|-----------------------14/16-14/16--|
D|------------------------------------|
A|--14-14-14-14-14-12-14--------------|
E|------------------------------------|

Verses:
G|-------------------------------------------------------------------------|
D|-------------------------------------------------------------------------| (x3)
A|-7/14-14-14-14-14-14-14-11-11-11-11-11-11-11-9-9-9-9-9-9-9-7-7-7-7-7-7-7-|
E|-------------------------------------------------------------------------|
then
G|---------------------------------------------|
D|---------------------------------------------|
A|------9/11-----9/11------9/11\9---7--7--7--7-|
E|---12-------12--------12---------------------|

Interlude:
G|-------------------------------------------------------------------------|
D|-------------------------------------------------------------------------|
A|-7/14-14-14-14-14-14-14-7-7-7-7-7-7-7-9-9-9-9-9-9-9-11-11-11-11-11-11-11-| (x2)
E|-------------------------------------------------------------------------|

Chorus 1:
G|-------------------------------------------------------------------|
D|-------------------------------------------------------------------|
A|-2-2-2-2--2--2------------------------------------------------h1---|
E|---------------0-0-0-0--0--0-2-2-2-2--2--2-4-4-4-4--4--4--4/6------|
then
G|-------------------------------------------------------|
D|-------------------------------------------------------|
A|-2-2-2-2--2--2---------------4-4\2/4-4-4/7-7-7---------|
E|---------------0-0-0-0--0--0-------------------0-0-0-0-|

Bass Solo: It will takes months to master this one, this is the fastest and the most 
part of the song

Part 1: x4

                G#m Key
G|----------16-16-16-18-18-18-16-16-16-------16----|
D|-18-18-18----------------------------18-18----16-|
A|-------------------------------------------------|
E|-------------------------------------------------|
                B Key
G|----------------------------18-18-18-16-16-------|
D|----------18-18-18-16-16-16----------------18-16-|
A|-14-14-14----------------------------------------|
E|-------------------------------------------------|
                E Key
G|-------------------16-16-16----------16-16-------|
D|----------18-18-18----------18-18-18-------18-16-|
A|-19-19-19----------------------------------------|
E|-------------------------------------------------|
                C#m Key
G|-------------------20-20-20-18-18-18-20-18-20----|
D|----------18-18-18----------------------------21-|
A|-16-16-16----------------------------------------|
E|-------------------------------------------------|


Part 2: Octave became lower

                G#m Key
G|-------4-4-4-6-6-6-4-4-4-----4---|
D|-6-6-6-------------------6-6---6-|
A|---------------------------------|
E|---------------------------------|
                B Key
G|-------------------6-6-6-4-4-----|
D|-------6-6-6-4-4-4-----------6-4-|
A|-2-2-2---------------------------|
E|---------------------------------|
                E Key
G|-------------4-4-4-------4-4-----|
D|-------6-6-6-------6-6-6-----6-4-|
A|-7-7-7---------------------------|
E|---------------------------------|
                C#m Key
G|-------------8-8-8-6-6-6-8-6-8---|
D|-------6-6-6-------------------9-|
A|-4-4-4---------------------------|
E|---------------------------------|
                G#m Key
G|-------4-4-4-6-6-6-4-4-4-----4---|
D|-6-6-6-------------------6-6---6-|
A|---------------------------------|
E|---------------------------------|
                B Key
G|-------------------6-6-6-4-4-----|
D|-------6-6-6-4-4-4-----------6-4-|
A|-2-2-2---------------------------|
E|---------------------------------|
                E Key             C#m Key
G|-------------------------|-6-----6-----6-----6----|
D|-------------------------|------------------------|
A|-7-----7-----7-----7-----|----4-----4-----4-----4-|
E|----0-----0-----0-----0--|------------------------|


Bridge:
G|--------------------------------------------------------------|
D|--------------------------------------------------------------|
A|-2-2-2-2--2--2------------------------------------------------| (x2)
E|---------------0-0-0-0--0--0-2-2-2-2--2--2-4-4-4-4--4--4--4---|

Chorus 2:
G|------------------------------------------------------|
D|------------------------------------------------------|
A|-2~---------------------------4-4\2/4-4-4/7-7-7-------|
E|------------------------------------------------0-0-0-|

Ending
G|----------|
D|----------|
A|-14~------|
E|----------|


Song Order:

Intro
Verses
Chorus 1
Intro
Verses
chorus 1 x2
Bass solo
Bridge
Chorus 2
chorus 1
Bridge
Intro
ending
            
Submit corrections

comments powered by Disqus
↑ Back to top | Hillsongs Bass for Salvation Is Here. Lyrics for acoustic guitar and electric guitar. 1 Tablatures and chords are parodies/interpretations of the original songs. You may use it for private study, scholarship, research or language learning purposes only