» » »

Hawk Nelson, Is Forever Enough Tabs (ver.2)

Artists:  A B C D E F G H I J K L M N O P Q R S T U V W X Y Z # 

Is Forever Enough Tabs (ver.2)

Hawk Nelson Tabs
 Rating:
4/5 (4 votes)
Is Forever Enough lessons Tabs too difficult? Try these video lessons and learn fast
                Well, this is my first tab so it might not be perfect but hey, at least I tried!

Standard tuning
* = Palm Mute
/ = Slide Up
~ = Let Ring

 Repeat Here
      ||
      \/
e|-3-|---------------------------------|
B|-3-|---------------------------------|
G|-5-|---------------------------------|  x4 and let last note on 4th ring
D|-5-|---------------------------------|
A|-3-|-6-5/6---6-5/6---6-5/6-8-6-5-6-5-|
E|-3-|-------4-------6-----------------|

e|-3-3---3-3---3-3---6-6--6-6-|
B|-3-3---3-3---3-3---6-6--6-6-|
G|-5-5---5-5---5-5---6-6--8-8-|  x4
D|-5-5---5-5---5-5---8-8--8-8-|
A|-3-3---3-3---3-3---8-8--6-6-|
E|-3-3---3-3---3-3---6-6--6-6-|

e|----------------------------------------|
B|----------------------------------------|
G|-5555----------------5555---------------|
D|-5555-6666-8888-3333-5555-6666-8888-333-|
A|-3333-6666-8888-3333-3333-6666-8888-333-|
E|------4444-6666-1111------4444-6666-111-|
   ***  ***  ***  ***  ***  ***  ***

e|-66666666-44444444-33-33---6666-4444-66666666-44444444-33-33---6666-4444-|
B|-66666666-44444444-33-33---6666-4444-66666666-44444444-33-33---6666-4444-|
G|-88888888-44444444-33-33---6666-4444-88888888-44444444-55-55---6666-4444-|
D|-88888888-66666666-55-55---8888-6666-88888888-66666666-55-55---8888-6666-|
A|-66666666-66666666-55-55---8888-6666-66666666-66666666-33-33---8888-6666-|
E|-66666666-44444444-33-33---6666-4444-66666666-44444444-33-33---6666-4444-|

 Repeat Here
      ||
      \/
e|-3-|---------------------------------|
B|-3-|---------------------------------|
G|-5-|---------------------------------|  x2 and hold last note on 4th
D|-5-|---------------------------------|
A|-3-|-6-5/6---6-5/6---6-5/6-8-6-5-6-5-|
E|-3-|-------4-------6-----------------|

e|-3-3---3-3---3-3---6-6--6-6-|
B|-3-3---3-3---3-3---6-6--6-6-|
G|-5-5---5-5---5-5---6-6--8-8-|  x4
D|-5-5---5-5---5-5---8-8--8-8-|
A|-3-3---3-3---3-3---8-8--6-6-|
E|-3-3---3-3---3-3---6-6--6-6-|

e|-----------------------------------------|
B|-----------------------------------------|
G|-5555----------------5555----------------|
D|-5555-6666-8888-3333-5555-6666-8888-3333-|
A|-3333-6666-8888-3333-3333-6666-8888-3333-|
E|------4444-6666-1111------4444-6666-1111-|
   ***  ***  ***  ***  ***  ***  ***  ***

e|----------------------------------------|
B|----------------------------------------|
G|-5555----------------5555---------------|
D|-5555-6666-8888-3333-5555-6666-8888-333-|
A|-3333-6666-8888-3333-3333-6666-8888-333-|
E|------4444-6666-1111------4444-6666-111-|
   ***  ***  ***  ***  ***  ***  ***  

e|-66666666-44444444-33-33---6666-4444-66666666-44444444-33-33---6666-4444-|
B|-66666666-44444444-33-33---6666-4444-66666666-44444444-33-33---6666-4444-|
G|-88888888-44444444-33-33---6666-4444-88888888-44444444-55-55---6666-4444-|
D|-88888888-66666666-55-55---8888-6666-88888888-66666666-55-55---8888-6666-|
A|-66666666-66666666-55-55---8888-6666-66666666-66666666-33-33---8888-6666-|
E|-66666666-44444444-33-33---6666-4444-66666666-44444444-33-33---6666-4444-|

e|----------------------------------------|
B|----------------------------------------|
G|-5555----------------5555---------------|
D|-5555-6666-8888-3333-5555-6666-8888-333-|
A|-3333-6666-8888-3333-3333-6666-8888-333-|
E|------4444-6666-1111------4444-6666-111-|
   ***  ***  ***  ***  ***  ***  ***  

e|-6666~-4444~-3333---666-4-6666~-4444~-3333---666-444-|
B|-6666~-4444~-3333---666-4-6666~-4444~-3333---666-444-|
G|-8888~-4444~-3333---666-4-8888~-4444~-5555---666-444-|
D|-8888~-6666~-5555---888-6-8888~-6666~-5555---888-666-|
A|-6666~-6666~-5555---888-6-6666~-6666~-3333---888-666-|
E|-6666~-4444~-3333---666-4-6666~-4444~-3333---666-444-|

Well thats all I can figure out, sorry! If anyone has the rest please message me!!!
            
Submit corrections

comments powered by Disqus
↑ Back to top | Hawk Nelson Tabs for Is Forever Enough. Lyrics for acoustic guitar and electric guitar. Tablatures and chords are parodies/interpretations of the original songs. You may use it for private study, scholarship, research or language learning purposes only