» » »

Hawk Nelson, Is Forever Enough Bass tabs (ver.1)

Artists:  A B C D E F G H I J K L M N O P Q R S T U V W X Y Z # 

Is Forever Enough Bass tabs (ver.1)

Hawk Nelson Tabs
Rating:
0/5 (0 votes)
Is Forever Enough lessons Tabs too difficult? Try these video lessons and learn fast
                Hawk Nelson
Smile, It's the End of the World


Tuning: Dropped D (G D A D)

Special Symbols: \ = Slide Down
                 / = Slide Up


 Intro (2x)
G  ----------------------------------------------|
D  ----------------------------------------------|
A  -3-333-----------------3-333------------------|
D  ------6-6661-1113-3-3-3-----5-5551-1113-3-3-3-|


 Verse (2x)
G  ------------------------------------|
D  -----------------------------111----|
A  -3---3---3-------33--33--33-----1-1-|
D  -------------6688-------------------|


 Bridge
G  ---------------------------------|
D  ---------------------------------|
A  -3-3-3-3---------1-1-1-1---------|
D  ---------6-6-6-6---------3-3-3-3-|

G  ----------------------------------|
D  ----------------------------------|
A  -3-3-3-3---------1-1-1-1----------|
D  ---------6-6-6-6---------3--3--3\-|


 Chorus
G  ----------------------------------|
D  ----------------------------------|
A  -----------------33333333---------|
D  -1111111166666666--------88886666-|

G  ----------------------------------|
D  ---------666665-------------------|
A  -66666666------6533333333---------|
D  -------------------------88886666-|


 Intro
G  ----------------------------------------------|
D  ----------------------------------------------|
A  -3-333-----------------3-333------------------|
D  ------6-6661-1113-3-3-3-----5-5551-1113-3-3-3-|


 Verse (2x)
G  ------------------------------------|
D  -----------------------------111----|
A  -3---3---3-------33--33--33-----1-1-|
D  -------------6688-------------------|


 Bridge (3x)
G  ---------------------------------|
D  ---------------------------------|
A  -3-3-3-3---------1-1-1-1---------|
D  ---------6-6-6-6---------3-3-3-3-|

 Bridge Ending
G  ----------------------------------|
D  -------------------------3--3--3\-|
A  -3-3-3-3---------1-1-1-1----------|
D  ---------6-6-6-6------------------|


 Chorus
G  ----------------------------------|
D  ----------------------------------|
A  -----------------33333333---------|
D  -1111111166666666--------88886666-|

G  ----------------------------------|
D  ---------666665-------------------|
A  -66666666------6533333333---------|
D  -------------------------88886666-|


 Second Bridge
G  -------------------------------------|
D  -------------------------------------|
A  -----------------------------8-8-8-6-|
D  -10-10-10-10-6-6-6-6-8-8-8-8---------|

G  --------------------------------------|
D  --------------------------------------|
A  --------------------------------------|
D  -10-10-10-10-6-6-6-6-8-8-8-8-3--3--3\-|


 Final Chorus
G  ------------------------------------------------|
D  ------------------------------------------------|
A  ------------------------------------------8-----|
D  -1-1-1/13---6-6-6/18---10--10--10--10---8---8-6-|
          ^^         ^^
      thirteen    eighteen

G  ------------------------------------------------|
D  ------------------------------------------------|
A  ------------------------------------------------|
D  -1-1-1/13---6-6-6/18---10--10--10--10---8-8-8-6-|


 Post-Chorus
G  ------------------------------------------|
D  ------------------------------------------|
A  -66666666---------------------------------|
D  ---------88888888101010101010101066666666-|

G  ---------------------------------------------------------|
D  --------------------------------------------------666666-|
A  -----------------11-111-111-111-133-333-333-333----------|
D  -11-111-111-111-1------------------------------666-------|


 Intro
G  ----------------------------------------------|
D  ----------------------------------------------|
A  -3-333-----------------3-333------------------|
D  ------6-6661-1113-3-3-3-----5-5551-1113-3-3-3-|


 Ending
G  ---------------------|
D  ---------------------|
A  -3---3---3-----------|
D  -------------668810\-|
            
Submit corrections

comments powered by Disqus
↑ Back to top | Hawk Nelson Bass for Is Forever Enough. Lyrics for acoustic guitar and electric guitar. Tablatures and chords are parodies/interpretations of the original songs. You may use it for private study, scholarship, research or language learning purposes only