>
 >
Is Forever Enough

Is Forever Enough Guitar Tabs

Hawk Nelson - Is Forever Enough chords, tabs, tablatures, lyrics

Guitar lessons | Add/correct | Request | Top 50 tabs Artists:  A B C D E F G H I J K L M N O P Q R S T U V W X Y Z 0-9

Is Forever Enough Guitar Tabs – Hawk Nelson

CD, Sheet music, Poster

Do you like Is Forever Enough? Share with your friends now
Bass TabsBass Tabs v2ChordsTabsTabs v2Tabs v3Ukulele

Tuning: Drop C (tune to drop D then tune everything down one whole step)

This is my first tab so here goes.

INTRO:2x
e|x--------------------------------------------------------------------------|
B|x--------------------------------------------------------------------------|
G|x--------------------------------------------------------------------------|
D|x--------------------------------------------------------------------------|
A|x-5-5-8-7-8-----8-7-8-----8-7-8-10-8-7-8-7-----8-7-8-----8-7-8-------8-7-8-|
E|x-----------8-8-------7-7------------------5-5-------8-8-------10-10-------|

e|--------------------------------------------------------------------------|
B|--------------------------------------------------------------------------|
G|--------------------------------------------------------------------------|
D|--------------------------------------------------------------------------|
A|-10-8-7-------------------------------------------------------------------|
E|--------10----------------------------------------------------------------|
INTRO guitar 2:
e|--------------------------------------------------------------------------|
B|--------------------------------------------------------------------------|
G|--------------------------------------------------------------------------|
D|12-strum-8-strum-3-strum-5-strum-\----------------------------------------|
A|12-for 4-8-for 4-3-for 4-5-for 4--4x--------------------------------------|
E|12-beats-8-beats-3-beats-5-beats-/----------------------------------------|

VERSE:
e|--------------------------------------------------------------------------|
B|--------------------------------------------------------------------------|
G|--------------------------------------------------------------------------|
D|0-x-x--x-0-x-x--x-0-x-x--x-8-10-\-----------------------------------------|
A|0-x-x--x-0-x-x--x-0-x-x--x-8-10--4x---------------------------------------|
E|0-x-x--x-0-x-x--x-0-x-x--x-8-10-/-----------------------------------------|

PRE-CHORUS:
e|--------------------------------------------------------------------------|
B|--------------------------------------------------------------------------|
G|--------------------------------------------------------------------------|
D|12\---8\---10\---5\---12\---8\---10\---5\---\-----------------------------|
A|12-4x-8-4x-10-4x-5-4x-12-4x-8-4x-10-4x-5-3x--\slide down------------------|
E|12/---8/---10/---5/---12/---8/---10/---5/-----\---------------------------|
  *     *    *     *    *     *    *

CHORUS:
e|--------------------------------------------------------------------------|
B|--------------------------------------------------------------------------|
G|--------------------------------------------------------------------------|
D|3\---8\---0-0-12-0-0-12-12-0-10\---8\----\--------------------------------|
A|3-8x-8-8x-0-0-12-0-0-12-12-0-10-4x-8-4x---all of this 2x------------------|
E|3/---8/---0-0-12-0-0-12-12-0-10/---8/----/--------------------------------|

INTRO

VERSE

PRE-CHORUS

CHORUS

BRIDGE: just vocals, bass, and drums until "stronger" then come in with this
e|--------------------------------------------------------------------------|
B|--------------------------------------------------------------------------|
G|--------------------------------------------------------------------------|
D|-5-5-5\-------------------------------------------------------------------|
A|-5-5-5-\slide down--------------------------------------------------------|
E|-5-5-5--\-----------------------------------------------------------------|

CHORUS:This chorus is a little diffent from the others. Play the same chords but put a 
more "breathing room" into your playing. listen to the drums and they kinda give it that 
listen to it yourself to get what i'm saying.

OUTRO:

e|--------------------------------------------------------------------------|
B|----------------------------------4x--4x--4x----4x------------------------|
G|--------------7-7-9-9-10-10------/-\-/-\-/---\-/-\------------------------|
D|3\---2\---0-0-7-7-9-9-10-10-8\---3-3-2-2-12-12-8-8------------------------|
A|3-8x-2-8x-0-0-5-5-7-7-8--8--8-8x-3-3-2-2-12-12-8-8------------------------|
E|3/---2/---0-0---------------8/---3-3-2-2-12-12-8-8------------------------|

INTRO

VERSE: play through what's typed out just once and slide down at the end.

FINISHED!

| /  slide up
| \  slide down
| h  hammer-on
| p  pull-off
| ~  vibrato
| +  harmonic
| x  Mute note





Comments


Popular Hawk Nelson tabs & chords
I Still Miss You Bass Tabs
Crazy Love Chords
Is Forever Enough Chords
Live Life Loud Chords
Stagefright 1 Chords
Tis So Sweet Chords
Joanna Tabs
Someone Else Before 1 Tabs
Zero Tabs
Zero Intro Tabs


Song lyrics



↑ Back to top | Tablatures and chords are parodies/interpretations of the original songs. You may use it for private study, scholarship, research or language learning purposes only
© 2014 AZChords.com Contact us | Privacy policy | DMCA | Add/correct tabs | Request tabs | Top 50 tabs