>
 >
American Love

American Love Guitar Tabs

Haste The Day - American Love chords, tabs, tablatures, lyrics

Guitar lessons | Add/correct | Request | Top 50 tabs Artists:  A B C D E F G H I J K L M N O P Q R S T U V W X Y Z 0-9

American Love Guitar Tabs – Haste The Day

CD, Sheet music, Poster

Do you like American Love? Share with your friends now
Bass TabsBass Tabs v2TabsTabs v2Tabs v3
                             BURNING BRIDGES
                 Solid State Records, all rights reserved
  
  Tabbed out by Jeff Hayden

  Guitar 1 - Drop C Tuning - CGCFAd
  Guitar 2 - Drop C Tuning - CGCFAd 


(Intro)
|-----------------------------------------------------------------------|
|-----------------------------------------------------------------------|
|-----------------------------------------------------------------------|
|----------------5-4-4/5----------------5-4-4/5----------------5-4-4/5--|
|--00-3h5---3h5--3-2-2/3--00-3h5---3h5--3-2-2/3--00-3h5---3h5--3-2-2/3--|
|--00-----0---------------00-----0---------------00-----0---------------|
|  ..     .               ..     .               ..     .
|
|-----------------------------------------------------------------------|
|-----------------------------------------------------------------------|
|-----------------------------------------------------------------------|
|-----------------------------------------------------------------------|
|-----------------------------------------------------------------------|
|-----------------------------------------------------------------------|

|-------------------------|
|-------------------------|
|-------------------------|
|----------------5-4-4/5--|
|--00-3h5---3h5--3-2-2/3--|
|--00-----0---------------|
|  ..     .               
|
|-------------------------|
|-------------------------|
|-------------------------|
|----------------PS\\\----|
|----------------PS\\\----|
|----------------PS\\\----|

(Verse)
|-----------------------------------------------------------------------|
|-----------------------------------------------------------------------|
|-----------------------------------------------------------------------|
|----------------5-4-4/5----------------5-4-4/5----------------5-4-4/5--|
|--00-3h5---3h5--3-2-2/3--00-3h5---3h5--3-2-2/3--00-3h5---3h5--3-2-2/3--|
|--00-----0---------------00-----0---------------00-----0---------------|
|  ..     .               ..     .               ..     .
|
|-----------------------------------------------------------------------|
|-----------------------------------------------------------------------|
|-----------------------------------------------------------------------|
|----------------5-4-4/5----------------5-4-4/5----------------5-4-4/5--|
|--00-3h5---3h5--3-2-2/3--00-3h5---3h5--3-2-2/3--00-3h5---3h5--3-2-2/3--|
|--00-----0---------------00-----0---------------00-----0---------------|
   ..     .               ..     .               ..     .

|-----------------------------------------------------------------------|
|-----------------------------------------------------------------------|
|-----------------------------------------------------------------------|
|----------------5-4-4/5----------------5-4-4/5----------------5-4-4/5--|
|--00-3h5---3h5--3-2-2/3--00-3h5---3h5--3-2-2/3--00-3h5---3h5--3-2-2/3--|
|--00-----0---------------00-----0---------------00-----0---------------|
|  ..     .               ..     .               ..     .
|
|-----------------------------------------------------------------------|
|-----------------------------------------------------------------------|
|-----------------------------------------------------------------------|
|----------------5-4-4/5----------------5-4-4/5----------------5-4-4/5--|
|--00-3h5---3h5--3-2-2/3--00-3h5---3h5--3-2-2/3--00-3h5---3h5--3-2-2/3--|
|--00-----0---------------00-----0---------------00-----0---------------|
   ..     .               ..     .               ..     .

|------------------------------------------------|
|------------------------------------------------|
|------------------------------------------------|
|----------------5-4-4/5----------------5-4-4/5--|
|--00-3h5---3h5--3-2-2/3--00-3h5---3h5--3-2-2/3--|
|--00-----0---------------00-----0---------------|
|  ..     .               ..     .               
|
|------------------------------------------------|
|------------------------------------------------|
|------------------------------------------------|
|----------------5-4-4/5----------------5-4-4/5--|
|--00-3h5---3h5--3-2-2/3--00-3h5---3h5--3-2-2/3--|
|--00-----0---------------00-----0---------------|
   ..     .               ..     .               

(Riff 1)
|------------------------------------------------------|
|------------------------------------------------------|
|----------7\5---5\4---4/5-----------7\5---5\4---4/10--|
|--0000-0--x-x---x-x---x-x---0000-0--x-x---x-x---x--x--|
|--0000-0--5\3---3\2---2/3---0000-0--5\3---3\2---2/-8--|
|--0000-0------0-----0-------0000-0------0-----0-------|
|  .... .      .     .       .... .      .     .    
|
|------------------------------------------------------|
|------------------------------------------------------|
|------------------------------------------------------|
|--0000-0--------------------0000-0--------------------|
|--0000-0--------------------0000-0--------------------|
|--0000-0--------------------0000-0--------------------|
   .... .                    .... .

|---------------------------------------------------------------|
|---------------------------------------------------------------|
|-----------7\5-----5\4-----4/5------------7\5-----5\4----4/10--|
|--0000-0---x-x-----x-x-----x-x---0000-0---x-x-----x-x----x--x--|
|--0000-0---5\3-----3\2-----2/3---0000-0---5\3-----3\2----2/-8--|
|--0000-0--------0-------0--------0000-0--------0-------0-------|
|  .... .        .       .        .... .        .       .    
|
|---------------------------------------------------------------|
|----------15\13---13\12---12/13----------15\13---13\12--12/18--|
|-----------x-------x--x----x--x-----------x--x----x--x---x-----|
|--0000-0--12\10---10\-9----9/10--0000-0--12\10---10\-9---9/15--|
|--0000-0-------------------------0000-0------------------------|
|--0000-0--------0-------0--------0000-0--------0-------0-------|
   .... .        .       .        .... .        .       .

|---------------------------------------------------------------|
|---------------------------------------------------------------|
|-----------7\5-----5\4-----4/5------------7\5-----5\4----4/10--|
|--0000-0---x-x-----x-x-----x-x---0000-0---x-x-----x-x----x--x--|
|--0000-0---5\3-----3\2-----2/3---0000-0---5\3-----3\2----2/-8--|
|--0000-0--------0-------0--------0000-0--------0-------0-------|
|  .... .        .       .        .... .        .       .    
|
|---------------------------------------------------------------|
|----------15\13---13\12---12/13----------15\13---13\12--12/18--|
|-----------x-------x--x----x--x-----------x--x----x--x---x-----|
|--0000-0--12\10---10\-9----9/10--0000-0--12\10---10\-9---9/15--|
|--0000-0-------------------------0000-0------------------------|
|--0000-0--------0-------0--------0000-0--------0-------0-------|
   .... .        .       .        .... .        .       .

|---------------------------------------------------------------|
|---------------------------------------------------------------|
|-----------7\5-----5\4-----4/5------------7\5-----5\4----4/10--|
|--0000-0---x-x-----x-x-----x-x---0000-0---x-x-----x-x----x--x--|
|--0000-0---5\3-----3\2-----2/3---0000-0---5\3-----3\2----2/-8--|
|--0000-0--------0-------0--------0000-0--------0-------0-------|
|  .... .        .       .        .... .        .       .    
|
|---------------------------------------------------------------|
|----------15\13---13\12---12/13----------15\13---13\12--12/18--|
|-----------x-------x--x----x--x-----------x--x----x--x---x-----|
|--0000-0--12\10---10\-9----9/10--0000-0--12\10---10\-9---9/15--|
|--0000-0-------------------------0000-0------------------------|
|--0000-0--------0-------0--------0000-0--------0-------0-------|
   .... .        .       .        .... .        .       .

|---------------------------------------------------------------|
|---------------------------------------------------------------|
|-----------7\5-----5\4-----4/5------------7\5-----5\4----4/10--|
|--0000-0---x-x-----x-x-----x-x---0000-0---x-x-----x-x----x--x--|
|--0000-0---5\3-----3\2-----2/3---0000-0---5\3-----3\2----2/-8--|
|--0000-0--------0-------0--------0000-0--------0-------0-------|
|  .... .        .       .        .... .        .       .    
|
|---------------------------------------------------------------|
|----------15\13---13\12---12/13----------15\13---13\12--12/18--|
|-----------x-------x--x----x--x-----------x--x----x--x---x-----|
|--0000-0--12\10---10\-9----9/10--0000-0--12\10---10\-9---9/15--|
|--0000-0-------------------------0000-0------------------------|
|--0000-0--------0-------0--------0000-0--------0-------0-------|
   .... .        .       .        .... .        .       .

|---------------------------------------------------------------|
|---------------------------------------------------------------|
|-----------7\5-----5\4-----4/5------------7\5-----5\4----4/10--|
|--0000-0---x-x-----x-x-----x-x---0000-0---x-x-----x-x----x--x--|
|--0000-0---5\3-----3\2-----2/3---0000-0---5\3-----3\2----2/-8--|
|--0000-0--------0-------0--------0000-0--------0-------0-------|
|  .... .        .       .        .... .        .       .    
|
|---------------------------------------------------------------|
|----------15\13---13\12---12/13----------15\13---13\12--12/18--|
|-----------x-------x--x----x--x-----------x--x----x--x---x-----|
|--0000-0--12\10---10\-9----9/10--0000-0--12\10---10\-9---9/15--|
|--0000-0-------------------------0000-0------------------------|
|--0000-0--------0-------0--------0000-0--------0-------0-------|
   .... .        .       .        .... .        .       .

(Riff 2)
|------------------------------------------------------------|
|------------------------------------------------------------|
|------12-10---9-10-9-9-10\9-------12-10--9-10--14-14-15\14--|
|--00---x--x---x--x-x-x--x-x---00---x--x--x--x---x--x--x-----|
|--00--10--9---7--8-7-7--8\7---00--10--9--7--8--12-12-13\12--|
|--00--------------------------00----------------------------|
|  ..                          ..
|
|------------------------------------------------------------|
|------------------------------------------------------------|
|------12-10---9-10-9-9-10\9-------12-10--9-10--14-14-15\14--|
|--00---x--x---x--x-x-x--x-x---00---x--x--x--x---x--x--x-----|
|--00--10--9---7--8-7-7--8\7---00--10--9--7--8--12-12-13\12--|
|--00--------------------------00----------------------------|
   ..                          ..

|---------------------------------------------------------|
|---------------------------------------------------------|
|------12-10---9-10-9-9-10\9-------12-10--14-15-17-19-21--|
|--00---x--x---x--x-x-x--x-x---00---x--x---x--x--x--x--x--|
|--00--10--9---7--8-7-7--8\7---00--10--9--12-13-15-17-19--|
|--00--------------------------00-------------------------|
|  ..                          ..
|
|---------------------------------------------------------|
|---------------------------------------------------------|
|------12-10---9-10-9-9-10\9-------12-10--14-15-17-19-21--|
|--00---x--x---x--x-x-x--x-x---00---x--x---x--x--x--x--x--|
|--00--10--9---7--8-7-7--8\7---00--10--9--12-13-15-17-19--|
|--00--------------------------00-------------------------|
   ..                          ..

|------------------------------------------------------------|
|------------------------------------------------------------|
|------12-10---9-10-9-9-10\9-------12-10--9-10--14-14-15\14--|
|--00---x--x---x--x-x-x--x-x---00---x--x--x--x---x--x--x-----|
|--00--10--9---7--8-7-7--8\7---00--10--9--7--8--12-12-13\12--|
|--00--------------------------00----------------------------|
|  ..                          ..
|
|------------------------------------------------------------|
|------------------------------------------------------------|
|------12-10---9-10-9-9-10\9-------12-10--9-10--14-14-15\14--|
|--00---x--x---x--x-x-x--x-x---00---x--x--x--x---x--x--x-----|
|--00--10--9---7--8-7-7--8\7---00--10--9--7--8--12-12-13\12--|
|--00--------------------------00----------------------------|
   ..                          ..

|---------------------------------------------------------|
|---------------------------------------------------------|
|------12-10---9-10-9-9-10\9-------12-10--14-15-17-19-21--|
|--00---x--x---x--x-x-x--x-x---00---x--x---x--x--x--x--x--|
|--00--10--9---7--8-7-7--8\7---00--10--9--12-13-15-17-19--|
|--00--------------------------00-------------------------|
|  ..                          ..
|
|---------------------------------------------------------|
|---------------------------------------------------------|
|------12-10---9-10-9-9-10\9-------12-10--14-15-17-19-21--|
|--00---x--x---x--x-x-x--x-x---00---x--x---x--x--x--x--x--|
|--00--10--9---7--8-7-7--8\7---00--10--9--12-13-15-17-19--|
|--00--------------------------00-------------------------|
   ..                          ..

(Riff 3)
|--------------------------------------------------------------------------|
|--------------------------------------------------------------------------|
|--------------------------------------------------------------------------|
|--000000000--3~~~---000000000--3~~~---000000000--3~~~---000000000--3--000-|
|--000000000--3~~~---000000000--3~~~---000000000--3~~~---000000000--3--000-|
|--000000000--3~~~---000000000--3~~~---000000000--3~~~---000000000--3--000-|
|  .........         .........         .........         .........     ...
|
|--------------------------------------------------------------------------|
|--------------------------------------------------------------------------|
|--------------------------------------------------------------------------|
|--000000000--3~~~---000000000--3~~~---000000000--3~~~---000000000--3--000-|
|--000000000--3~~~---000000000--3~~~---000000000--3~~~---000000000--3--000-|
|--000000000--3~~~---000000000--3~~~---000000000--3~~~---000000000--3--000-|
   .........         .........         .........         .........     ...

|----------------------------------------------------------------|
|----------------------------------------------------------------|
|----------------------------------------------------------------|
|--000000000--3-0-0-000-0--3-0-5--000000000--3-0-0-000-0--3-0-5--|
|--000000000--3-0-0-000-0--3-0-5--000000000--3-0-0-000-0--3-0-5--|
|--000000000--3-0-0-000-0--3-0-5--000000000--3-0-0-000-0--3-0-5--|
|  .........    .   ... .    .    .........    .   ... .    .
|
|----------------------------------------------------------------|
|----------------------------------------------------------------|
|----------------------------------------------------------------|
|--000000000--3-------------------000000000--3-------------------|
|--000000000--3-------------------000000000--3-------------------|
|--000000000--3-------------------000000000--3-------------------|
   .........                      .........

|---------------------------------------------------|
|---------------------------------------------------|
|---------------------------------------------------|
|--000000000--3-0-0-000-0--3-0-5--000000000--3-0-0--|
|--000000000--3-0-0-000-0--3-0-5--000000000--3-0-0--|
|--000000000--3-0-0-000-0--3-0-5--000000000--3-0-0--|
|  .........    .   ... .    .    .........    .   
|
|---------------------------------------------------|
|---------------------------------------------------|
|---------------------------------------------------|
|--000000000-<3>------------------000000000--3-0-0--|
|--000000000----------------------000000000--3-0-0--|
|--000000000----------------------000000000--3-0-0--|
   .........                      .........    .

|----------------------------------------------------------------|
|----------------------------------------------------------------|
|----------------------------------------------------------------|
|--000000000--3-0-0-000-0--3-0-5--000000000--3-0-0-000-0--3-0-5--|
|--000000000--3-0-0-000-0--3-0-5--000000000--3-0-0-000-0--3-0-5--|
|--000000000--3-0-0-000-0--3-0-5--000000000--3-0-0-000-0--3-0-5--|
|  .........    .   ... .    .    .........    .   ... .    .
|
|----------------------------------------------------------------|
|----------------------------------------------------------------|
|----------------------------------------------------------------|
|--000000000--3-0-0-000-0--3-0-5--000000000--3-0-0-000-0--3-0-5--|
|--000000000--3-0-0-000-0--3-0-5--000000000--3-0-0-000-0--3-0-5--|
|--000000000--3-0-0-000-0--3-0-5--000000000--3-0-0-000-0--3-0-5--|
   .........    .   ... .    .    .........    .   ... .    .

|------------------------------------------------------|
|------------------------------------------------------|
|------------------------------------------------------|
|--000000000--3-0-0-000-0--3-0-5--000000000--3-0-1~~~--|
|--000000000--3-0-0-000-0--3-0-5--000000000--3-0-1~~~--|
|--000000000--3-0-0-000-0--3-0-5--000000000--3-0-1~~~--|
|  .........    .   ... .    .    .........    .   
|
|------------------------------------------------------|
|------------------------------------------------------|
|------------------------------------------------------|
|--000000000--3-0-0-000-0--3-0-5--000000000--3-0-1~~~--|
|--000000000--3-0-0-000-0--3-0-5--000000000--3-0-1~~~--|
|--000000000--3-0-0-000-0--3-0-5--000000000--3-0-1~~~--|
   .........    .   ... .    .    .........    . 

|-----------------------------------------------------------------|
|-----------------------------------------------------------------|
|-----------------------------------------------------------------|
|--000000000--3-0-0-000-0--3-0--5--000000000--3-0-0-000-0--3-0-5--|
|--000000000--3-0-0-000-0--3-0--5--000000000--3-0-0-000-0--3-0-5--|
|--000000000--3-0-0-000-0--3-0--5--000000000--3-0-0-000-0--3-0-5--|
|  .........    .   ... .    .     .........    .   ... .    .
|
|-----------------------------------------------------------------|
|-----------------------------------------------------------------|
|-----------------------------------------------------------------|
|--000000000--3-0-0-000-0--3-0-<5>-000000000--3-0-0-000-0--3-0-5--|
|--000000000--3-0-0-000-0--3-0-----000000000--3-0-0-000-0--3-0-5--|
|--000000000--3-0-0-000-0--3-0-----000000000--3-0-0-000-0--3-0-5--|
   .........    .   ... .    .     .........    .   ... .    .

|----------------------------------------------------------------|
|----------------------------------------------------------------|
|----------------------------------------------------------------|
|--000000000--3-0-0-000-0--3-0-5--000000000--3-0-0-000-0--3-0-5--|
|--000000000--3-0-0-000-0--3-0-5--000000000--3-0-0-000-0--3-0-5--|
|--000000000--3-0-0-000-0--3-0-5--000000000--3-0-0-000-0--3-0-5--|
|  .........    .   ... .    .    .........    .   ... .    .
|
|----------------------------------------------------------------|
|----------------------------------------------------------------|
|----------------------------------------------------------------|
|--000000000--3-0-0-000-0--3-0-5--000000000--3-0-0-000-0--3-0-5--|
|--000000000--3-0-0-000-0--3-0-5--000000000--3-0-0-000-0--3-0-5--|
|--000000000--3-0-0-000-0--3-0-5--000000000--3-0-0-000-0--3-0-5--|
   .........    .   ... .    .    .........    .   ... .    .

("Quiet Part")
|-------------------------------------------------------------------|
|-------------------------------------------------------------------|
|----------7--------------7-----------------7--------------7--------|
|------0-----0---0------0---0---0-------5-----5---5------5---5---5--|
|----0---0-----0------0-------0-------5---5-----5------5-------5----|
|--0----------------0---------------5----------------5--------------|
|
|-------------------------------------------------------------------|
|-------------------------------------------------------------------|
|-------------------------------------------------------------------|
|-------------------------------------------------------------------|
|-------------------------------------------------------------------|
|-------------------------------------------------------------------|

|-------------------------------------------------------------------|
|-------------------------------------------------------------------|
|----------7--------------7-----------------7--------------7--------|
|------4-----4---4------4---4---4-------5-----5---5------5---5---5--|
|----4---4-----4------4-------4-------5---5-----5------5-------5----|
|--4----------------4---------------5----------------5--------------|
|
|-------------------------------------------------------------------|
|-------------------------------------------------------------------|
|-------------------------------------------------------------------|
|-------------------------------------------------------------------|
|-------------------------------------------------------------------|
|-------------------------------------------------------------------|

|-------------------------------------------------------------------|
|-------------------------------------------------------------------|
|----------7--------------7-----------------7--------------7--------|
|------0-----0---0------0---0---0-------5-----5---5------5---5---5--|
|----0---0-----0------0-------0-------5---5-----5------5-------5----|
|--0----------------0---------------5----------------5--------------|
|
|-------------------------------------------------------------------|
|-------------------------------------------------------------------|
|-------------------------------------------------------------------|
|-------------------------------------------------------------------|
|-------------------------------------------------------------------|
|-------------------------------------------------------------------|

|-------------------------------------------------------------------|
|-------------------------------------------------------------------|
|----------7--------------7-----------------7--------------7--------|
|------4-----4---4------4---4---4-------5-----5---5------5---5---5--|
|----4---4-----4------4-------4-------5---5-----5------5-------5----|
|--4----------------4---------------5----------------5--------------|
|
|-------------------------------------------------------------------|
|-------------------------------------------------------------------|
|-------------------------------------------------------------------|
|-------------------------------------------------------------------|
|-------------------------------------------------------------------|
|-------------------------------------------------------------------|

|-------------------------------------------------------------------|
|-------------------------------------------------------------------|
|----------7--------------7-----------------7--------------7--------|
|------0-----0---0------0---0---0-------5-----5---5------5---5---5--|
|----0---0-----0------0-------0-------5---5-----5------5-------5----|
|--0----------------0---------------5----------------5--------------|
|
|-------------------------------------------------------------------|
|-------------------------------------------------------------------|
|-------------------------------------------------------------------|
|-------------------------------------------------------------------|
|-------------------------------------------------------------------|
|-------------------------------------------------------------------|

|-------------------------------------------------------------------|
|-------------------------------------------------------------------|
|----------7--------------7-----------------7--------------7--------|
|------4-----4---4------4---4---4-------5-----5---5------5---5---5--|
|----4---4-----4------4-------4-------5---5-----5------5-------5----|
|--4----------------4---------------5----------------5--------------|
|
|-------------------------------------------------------------------|
|-------------------------------------------------------------------|
|-------------------------------------------------------------------|
|-------------------------------------------------------------------|
|-------------------------------------------------------------------|
|-------------------------------------------------------------------|

|-------------------------------------------------------------------|
|-------------------------------------------------------------------|
|----------7--------------7-----------------7--------------7--------|
|------0-----0---0------0---0---0-------5-----5---5------5---5---5--|
|----0---0-----0------0-------0-------5---5-----5------5-------5----|
|--0----------------0---------------5----------------5--------------|
|
|-------------------------------------------------------------------|
|-------------------------------------------------------------------|
|-------------------------------------------------------------------|
|-------------------------------------------------------------------|
|-------------------------------------------------------------------|
|-------------------------------------------------------------------|

|-------------------------------------------------------------------|
|-------------------------------------------------------------------|
|----------7--------------7-----------------7--------------7--------|
|------4-----4---4------4---4---4-------5-----5---5------5---5---5--|
|----4---4-----4------4-------4-------5---5-----5------5-------5----|
|--4----------------4---------------5----------------5--------------|
|
|-------------------------------------------------------------------|
|-------------------------------------------------------------------|
|-------------------------------------------------------------------|
|-------------------------------------------------------------------|
|-------------------------------------------------------------------|
|-------------------------------------------------------------------|

|-------------------------------------------------------------------|
|-------------------------------------------------------------------|
|----------7--------------7-----------------7--------------7--------|
|------0-----0---0------0---0---0-------5-----5---5------5---5---5--|
|----0---0-----0------0-------0-------5---5-----5------5-------5----|
|--0----------------0---------------5----------------5--------------|
|
|-------------------------------------------------------------------|
|-------------------------------------------------------------------|
|-------------------------------------------------------------------|
|-------------------------------------------------------------------|
|-------------------------------------------------------------------|
|-------------------------------------------------------------------|

|-------------------------------------------------------------------|
|-------------------------------------------------------------------|
|----------7--------------7-----------------7--------------7--------|
|------4-----4---4------4---4---4-------5-----5---5------5---5---5--|
|----4---4-----4------4-------4-------5---5-----5------5-------5----|
|--4----------------4---------------5----------------5--------------|
|
|-------------------------------------------------------------------|
|-------------------------------------------------------------------|
|-------------------------------------------------------------------|
|-------------------------------------------------------------------|
|-------------------------------------------------------------------|
|-------------------------------------------------------------------|

|-------------------------------------------------------------------|
|-------------------------------------------------------------------|
|----------7--------------7-----------------7--------------7--------|
|------0-----0---0------0---0---0-------5-----5---5------5---5---5--|
|----0---0-----0------0-------0-------5---5-----5------5-------5----|
|--0----------------0---------------5----------------5--------------|
|
|-------------------------------------------------------------------|
|-------------------------------------------------------------------|
|-------------------------------------------------------------------|
|-------------------------------------------------------------------|
|-------------------------------------------------------------------|
|-------------------------------------------------------------------|

|-------------------------------------------------------------------|
|-------------------------------------------------------------------|
|----------7--------------7-----------------7--------------7--------|
|------4-----4---4------4---4---4-------5-----5---5------5---5---5--|
|----4---4-----4------4-------4-------5---5-----5------5-------5----|
|--4----------------4---------------5----------------5--------------|
|
|-------------------------------------------------------------------|
|-------------------------------------------------------------------|
|-------------------------------------------------------------------|
|-------------------------------------------------------------------|
|-------------------------------------------------------------------|
|-------------------------------------------------------------------|

|-------------------------------------------------------------------|
|-------------------------------------------------------------------|
|----------7--------------7-----------------7--------------7--------|
|------0-----0---0------0---0---0-------5-----5---5------5---5---5--|
|----0---0-----0------0-------0-------5---5-----5------5-------5----|
|--0----------------0---------------5----------------5--------------|
|
|-------------------------------------------------------------------|
|-------------------------------------------------------------------|
|-------------------------------------------------------------------|
|-------------------------------------------------------------------|
|-------------------------------------------------------------------|
|-------------------------------------------------------------------|

|-------------------------------------------------------------------|
|-------------------------------------------------------------------|
|----------7--------------7-----------------7--------------7--------|
|------4-----4---4------4---4---4-------5-----5---5------5---5---5--|
|----4---4-----4------4-------4-------5---5-----5------5-------5----|
|--4----------------4---------------5----------------5--------------|
|
|-------------------------------------------------------------------|
|-------------------------------------------------------------------|
|-------------------------------------------------------------------|
|-------------------------------------------------------------------|
|-------------------------------------------------------------------|
|-------------------------------------------------------------------|

|-------------------------------------------------------------------|
|-------------------------------------------------------------------|
|----------7--------------7-----------------7--------------7--------|
|------0-----0---0------0---0---0-------5-----5---5------5---5---5--|
|----0---0-----0------0-------0-------5---5-----5------5-------5----|
|--0----------------0---------------5----------------5--------------|
|
|-------------------------------------------------------------------|
|-------------------------------------------------------------------|
|-------------------------------------------------------------------|
|-------------------------------------------------------------------|
|-------------------------------------------------------------------|
|-------------------------------------------------------------------|

|-------------------------------------------------------------------|
|-------------------------------------------------------------------|
|----------7--------------7-----------------7--------------7--------|
|------4-----4---4------4---4---4-------5-----5---5------5---5---5--|
|----4---4-----4------4-------4-------5---5-----5------5-------5----|
|--4----------------4---------------5----------------5--------------|
|
|-------------------------------------------------------------------|
|-------------------------------------------------------------------|
|-------------------------------------------------------------------|
|-------------------------------------------------------------------|
|-------------------------------------------------------------------|
|-------------------------------------------------------------------|

(Breakdown Riff)
|-----------------------------------------------------------------|
|-----------------------------------------------------------------|
|-----------------------------------------------------------------|
|--000-00-0--000000--000-00-0--000000--000-00-0--000000--000------|
|--000-00-0--000000--000-00-0--000000--000-00-0--000000--000------|
|--000-00-0--000000--000-00-0--000000--000-00-0--000000--000------|
|  ... .. .  ......  ... .. .  ......  ... .. .  ......  ... 
|
|-----------------------------------------------------------------|
|-----------------------------------------------------------------|
|-----------------------------------------------------------------|
|-----------------------------------------------------------------|
|--------------------------------------555555555555555555555------|
|------------------------------------------------------------<3>--|

|-------------------------------------------------------------------|
|-------------------------------------------------------------------|
|-------------------------------------------------------------------|
|--000-00-0--000000--000-00-0--000000--000-00-0--000000--000--3--5--|
|--000-00-0--000000--000-00-0--000000--000-00-0--000000--000--3--5--|
|--000-00-0--000000--000-00-0--000000--000-00-0--000000--000--3--5--|
|  ... .. .  ......  ... .. .  ......  ... .. .  ......  ... 
|
|-------------------------------------------------------------------|
|-------------------------------------------------------------------|
|-------------------------------------------------------------------|
|--000-00-0--000000--000-00-0--000000--000-00-0--000000--000--3--5--|
|--000-00-0--000000--000-00-0--000000--000-00-0--000000--000--3--5--|
|--000-00-0--000000--000-00-0--000000--000-00-0--000000--000--3--5--|
   ... .. .  ......  ... .. .  ......  ... .. .  ......  ... 

|-------------------------------------------------------------------|
|-------------------------------------------------------------------|
|-------------------------------------------------------------------|
|--000-00-0--000000--000-00-0--000000--000-00-0--000000--000--3--5--|
|--000-00-0--000000--000-00-0--000000--000-00-0--000000--000--3--5--|
|--000-00-0--000000--000-00-0--000000--000-00-0--000000--000--3--5--|
|  ... .. .  ......  ... .. .  ......  ... .. .  ......  ... 
|
|-------------------------------------------------------------------|
|-------------------------------------------------------------------|
|-------------------------------------------------------------------|
|--000-00-0--000000--000-00-0--000000--000-00-0--000000--000--3--5--|
|--000-00-0--000000--000-00-0--000000--000-00-0--000000--000--3--5--|
|--000-00-0--000000--000-00-0--000000--000-00-0--000000--000--3--5--|
   ... .. .  ......  ... .. .  ......  ... .. .  ......  ... 

|-------------------------------------------------------------------|
|-------------------------------------------------------------------|
|-------------------------------------------------------------------|
|--000-00-0--000000--000-00-0--000000--000-00-0--000000--000--3--5--|
|--000-00-0--000000--000-00-0--000000--000-00-0--000000--000--3--5--|
|--000-00-0--000000--000-00-0--000000--000-00-0--000000--000--3--5--|
|  ... .. .  ......  ... .. .  ......  ... .. .  ......  ... 
|
|-------------------------------------------------------------------|
|-------------------------------------------------------------------|
|-------------------------------------------------------------------|
|--000-00-0--000000--000-00-0--000000--000-00-0--000000--000--3--5--|
|--000-00-0--000000--000-00-0--000000--000-00-0--000000--000--3--5--|
|--000-00-0--000000--000-00-0--000000--000-00-0--000000--000--3--5--|
   ... .. .  ......  ... .. .  ......  ... .. .  ......  ... 

|-------------------------------------------------------------------|
|-------------------------------------------------------------------|
|-------------------------------------------------------------------|
|--000-00-0--000000--000-00-0--000000--000-00-0--000000--000--3--5--|
|--000-00-0--000000--000-00-0--000000--000-00-0--000000--000--3--5--|
|--000-00-0--000000--000-00-0--000000--000-00-0--000000--000--3--5--|
|  ... .. .  ......  ... .. .  ......  ... .. .  ......  ... 
|
|-------------------------------------------------------------------|
|-------------------------------------------------------------------|
|-------------------------------------------------------------------|
|--000-00-0--000000--000-00-0--000000--000-00-0--000000--000--3--5--|
|--000-00-0--000000--000-00-0--000000--000-00-0--000000--000--3--5--|
|--000-00-0--000000--000-00-0--000000--000-00-0--000000--000--3--5--|
   ... .. .  ......  ... .. .  ......  ... .. .  ......  ... 

|-----------|--------------------------------------------------------------|
|-----------|--------------------------------------------------------------|
|-----5-----|--------------------------------------------------------------|
|---3---3---|-000-00-0--000000--000-00-0--000000--000-00-0--000000-000-3-5-|
|-3-------3-|-000-00-0--000000--000-00-0--000000--000-00-0--000000-000-3-5-|
|-----------|-000-00-0--000000--000-00-0--000000--000-00-0--000000-000-3-5-|
|             ... .. .  ......  ... .. .  ......  ... .. .  ...... ... 
|
|-----------|--------------------------------------------------------------|
|-----------|--------------------------------------------------------------|
|-----------|--------------------------------------------------------------|
|-----------|-000-00-0--000000--000-00-0--000000--000-00-0--000000-000-3-5-|
|-----------|-000-00-0--000000--000-00-0--000000--000-00-0--000000-000-3-5-|
|-----------|-000-00-0--000000--000-00-0--000000--000-00-0--000000-000-3-5-|
              ... .. .  ......  ... .. .  ......  ... .. .  ...... ... 

|----------------------------------------------------------------|-------||
|----------------------------------------------------------------|-------||
|----------------------------------------------------------------|---7---||
|-000-00-0--000000--000-00-0--000000--000-00-0--000000--000--3-5-|---0---||
|-000-00-0--000000--000-00-0--000000--000-00-0--000000--000--3-5-|---0---||
|-000-00-0--000000--000-00-0--000000--000-00-0--000000--000--3-5-|---0---||
| ... .. .  ......  ... .. .  ......  ... .. .  ......  ... 
|
|----------------------------------------------------------------|-------||
|----------------------------------------------------------------|-------||
|----------------------------------------------------------------|---7---||
|-000-00-0--000000--000-00-0--000000--000-00-0--000000--000--3-5-|---0---||
|-000-00-0--000000--000-00-0--000000--000-00-0--000000--000--3-5-|---0---||
|-000-00-0--000000--000-00-0--000000--000-00-0--000000--000--3-5-|---0---||
  ... .. .  ......  ... .. .  ......  ... .. .  ......  ... 

(Lyrics)

Exchanging beauty for the ashes
Given my heart to nothing real

I've given my heart away
To so many things
So many times I've failed
Help me stop this endless cycle
Remind me of how it can be

Take me back, I surrender all
Without You my heart is broken

I never should have let You go
I never should have let You slip through my arms

As the sun sets tonight
I'll hold You with all that I am

I never should have let you go
Promise me You'll stay with me forever, forever

Forgive me for running so quickly to the outside


[Key]
<#> - pinch harmonic
PS - pick scrape
. - palm mute
~ - let ring out/vibrato
x - mute string
/ - slide up
\ - slide down
h - hammer on





Comments


Popular Haste The Day tabs & chords
An Honest Confession Bass Tabs
Breaking My Own Heart Bass Tabs
Chorus Of Angels Bass Tabs
Breaking My Own Heart 1 Tabs
Dogs Like Vultures Intro Tabs
For A Lifetime Tabs
Janet's Planet 2 Tabs
Long Way Down 1 Tabs
Perfect Night Tabs
PorcelainIntro Tabs


Song lyrics



↑ Back to top | Tablatures and chords are parodies/interpretations of the original songs. You may use it for private study, scholarship, research or language learning purposes only
© 2014 AZChords.com Contact us | Privacy policy | DMCA | Add/correct tabs | Request tabs | Top 50 tabs