» » »

Haste The Day, American Love Bass tabs (ver.2)

Artists:  A B C D E F G H I J K L M N O P Q R S T U V W X Y Z # 

American Love Bass tabs (ver.2)

Haste The Day Tabs
 Rating:
4/5 (4 votes)
American Love lessons Tabs too difficult? Try these video lessons and learn fast
                -------------------------------------------------------------------------------
			     American Love- Haste the Day
-------------------------------------------------------------------------------


Intro

F|--------------------|
C|--------------------|
G|----3h5-3h5-5-4-4h5-|  x8 (lead plays 12)
C|0-0----0---0--------|

Verse Uno

F|------------------|
C|------------------|
G|------------------|  x4
C|000-0-0-----------|
 Guitar Plays Fill Here


F|-----------------------------------------|
C|-----------------------------------------|
G|--------5/3-3/2-2/3----------5/3-3/2-2/8-|  x4
C|000-0-0--------------000-0-0-------------|

Verse Dos

F|------------------------------2-2h3p2------|
C|---5-3-2-3-2-2h3p2----5-3-2-3--------------|
G|-------------------------------------------|
C|00-(0-0-0-0-0)-----00-(0-0-0-0-0)----------|
       optional          optional                x2

F|--------------------------2-3-5-7-9--------|
C|---5-3-2-3-2-2h3p2----5-3------------------|
G|-------------------------------------------|
C|00-(0-0-0-0-0)-----00-(0-0-0-0-0-0)--------|
      optional             optional
Can also be played on tenth fret on G string

Breakdown Uno
F|-----------------|
C|-----------------|
G|-----------------|   x4
C|-00000000--3~----|

F|-------------------------------|
C|-------------------------------|
G|-------------------------------|  x8
C|-00000000--3--000--000-0-3-0-5-|

Every Four times it ends on 1 instead of 5

Verse Tres (Pretty Part)

For the record, the bass comes in after a while,
so playing this early is 100% optional.

F|-----------------------|
C|-----------------------|
G|-----------------------|   x8
C|-0~--5~--4~--5~--------|

Breakdown Dos
G|------------------------------------------------------|
C|------------------------------------------------------|
F|------------------------------------------------------| x6
C|0000-0000-00000000-0000-00000000-0000-00000000-00-3-5-|

8 times if played with Guitar in beginning

Please Rate, and email if any issues or corrections.
            
Submit corrections

comments powered by Disqus
↑ Back to top | Haste The Day Bass for American Love. Lyrics for acoustic guitar and electric guitar. Tablatures and chords are parodies/interpretations of the original songs. You may use it for private study, scholarship, research or language learning purposes only