» » »

Haste The Day, American Love Bass tabs (ver.1)

Artists:  A B C D E F G H I J K L M N O P Q R S T U V W X Y Z # 

American Love Bass tabs (ver.1)

Haste The Day Tabs
 Rating:
4/5 (7 votes)
American Love lessons Tabs too difficult? Try these video lessons and learn fast
                Key
h=hammer-on
p=pull-off
~=let note ring
/ or \=slide up or down
*=don’t pick note


Intro
F|--------------------|
C|--------------------|
G|----3h5-3h5-5-4-3h5-|
C|0-0-----------------|   x8(after lead guitar does it 4 times)


Verse
F|------------------------------------------|
C|------------------------------------------|
G|------------------------------------------|
C|0000-0(guitar fill)-0000-0(guitar fill----|  x1

F|------------------------------------------|
C|------------------------------------------|
G|------------------------------------------|
C|0000-0~(guitar fill)-0000-0(guitar fill---| x1

F|------------------------------------------|
C|------------------------------------------|
G|-------5h3-3h2-2h3--------5h3-3h2-2\7-----|
C|0000-0-------------0000-0-----------------|    x4

Verse 2
F|------------------------------2-2h3p2---------------------|
C|----5-3-2-3-2-2h3p2-----5-3-2-------------5-3-2-3-2-2h3p2-|
G|----------------------------------------------------------|
C|0-0-----------------0-0---------------0-0-----------------|

F|--------2-3-5-7-9----------|
C|----5-3--------------------|
G|---------------------------|
C|0-0------------------------|         x2

Break Down (MOSH PIT!!!)

F|--------|
C|--------|
G|--------|
C|00000-2~   X3

F|--------|
C|--------|
G|--------|
C|00000-2-  X4

F|-----------|
C|-----------|
G|-----------|
C|00000-2-000  X1


F|------------------------|
C|------------------------|
G|------------------------|
C|00000-2--000--000-00204-|  X3

F|--------------|
C|--------------|
G|--------------|
C|00000-2--001~-|


F|------------------------|
C|------------------------|
G|------------------------|
C|00000-2--000--000-00204-|  X3

Clean Part
   REST

Outro
G|----------------------------------------------------|
C|----------------------------------------------------|
F|----------------------------------------------------|
C|000-0000-000000-0000-000000-0000-000000-0000-0h3-0--|h5~  x6(after lead guitar goes through once)

I may be wrong on the outro but listen to the song and youll get the rhythm
            
Submit corrections

comments powered by Disqus
↑ Back to top | Haste The Day Bass for American Love. Lyrics for acoustic guitar and electric guitar. Tablatures and chords are parodies/interpretations of the original songs. You may use it for private study, scholarship, research or language learning purposes only