» » »

Haste The Day, American Love Tabs (ver.3)

Artists:  A B C D E F G H I J K L M N O P Q R S T U V W X Y Z # 

American Love Tabs (ver.3)

Haste The Day Tabs
 Rating:
4/5 (12 votes)
American Love lessons Tabs too difficult? Try these video lessons and learn fast
                Haste The Day
American Love
(P)&(C) 2004 Solid State Records

**** DROP C ****
I didnt put the pinch harmonics in cause this is more of a freestyle tab...
 it just gives you the idea...
so just add the pinch harmonics in wherever they are in the song.

0:00 - 0:30
 |----------------------------------|
 |----------------------------------|
 |------5-7-5-7--10-9--9-10---------| repeats
 |-0-0------------------------------|
 |-0-0--3-5-3-5--8--7--7-8----------|
 |-0-0------------------------------|

0:31 - 1:08
 |----------------------------------------------------|
 |----------------------------------------------------|
 |-----------7-5--5-4--4-5-------------7-5--5-4--4-10-| repeats
 |-0000-0-0------------------0000-0-0-----------------|
 |-0000-0-0--5-3--3-2--2-3---0000-0-0--5-3--3-2--2-8--|
 |-0000-0-0------------------0000-0-0-----------------|

1:09 - 1:28
 |-------------------------------------------------------|
 |-------------------------------------------------------|
 |----12-10--9-10-9--9109-------12-10--9-10-9---14-15-14-| repeats
 |-00------------------------00--------------------------|
 |-00-10-8---7-8--7--78-7----00-10-8---7-8--7---12-13-12-|
 |-00------------------------00--------------------------|

 and there is also this variation in there a couple times

 |--------------------------------|
 |--------------------------------| this sounds right... but i dont know
 |----12-10--14-15--17-19--21-----| seems kinda high
 |-00-----------------------------|
 |-00-10-8---12-13--15-17--19-----|
 |-00-----------------------------|

1:29 - 2:19

 |----------------------------------|
 |----------------------------------|
 |----------------------------------|
 |-000000-3--00-0-00-0-0-5----------|
 |-000000-3--00-0-00-0-0-5----------|
 |-000000-3--00-0-00-0-0-5----------|

        repeat above 3 times then do below once
 |----------------------------------|
 |----------------------------------|
 |----------------------------------|
 |-000000-3--0-1--------------------|
 |-000000-3--0-1--------------------|
 |-000000-3--0-1--------------------|


my favorite part...
2:20 - 4:02
 |---------------------------------------|
 |---------------------------------------|
 |-----7---------7--------7--------7-----|
 |---0--0------0--0-0---5--5-----5--5-5--|
 |--0-0--0----0-0--0---5-5--5---5-5--5---|
 |-0------0-----------5------5-----------|
                                             repeats
 |---------------------------------------|
 |---------------------------------------|
 |-----7---------7--------7--------7-----|
 |---4--4------4--4-4---5--5-----5--5-5--|
 |--4-4--4----4-4--4---5-5--5---5-5--5---|
 |-4------4-----------5------5-----------|

4:02 - 4:32
 |----------------------------------|
 |--play it a bunch open------------|
 |----------------------------------| repeats
 |-0000-0000-0000-0000----0-3--0-5--|
 |-0000-0000-0000-0000----0-3--0-5--|
 |-0000-0000-0000-0000----0-3--0-5--|


4:33 - 4:35
 |-------------|
 |-------------|
 |-------------|
 |-----10------|
 |---10--10----|
 |-10------10--|

4:36 - END
 |----------------------------------|
 |--play it a bunch open------------|
 |----------------------------------| repeats
 |-0000-0000-0000-0000----0-3--0-5--|
 |-0000-0000-0000-0000----0-3--0-5--|
 |-0000-0000-0000-0000----0-3--0-5--|

ends on clean:
|-----
|-----
|--7---|
|--0---|
|--0---|
|--0---|
            
Submit corrections

comments powered by Disqus
↑ Back to top | Haste The Day Tabs for American Love. Lyrics for acoustic guitar and electric guitar. Tablatures and chords are parodies/interpretations of the original songs. You may use it for private study, scholarship, research or language learning purposes only