» » »

Hammerfall, Remember Yesterday Tabs (ver.2)

Artists:  A B C D E F G H I J K L M N O P Q R S T U V W X Y Z # 

Remember Yesterday Tabs (ver.2)

Hammerfall Tabs
 Rating:
4/5 (4 votes)
Remember Yesterday lessons Tabs too difficult? Try these video lessons and learn fast
1
                Hammerfall                          
Remember yesterday                                


                                 



   (Clean guitar)                                                       
D#||--------------------------|--------------------------|
A#||-----5--------5--------5--|-----3--------3--------3--|
F#||--------5--------5--------|--------5--------5--------|
C#||-----------7--------7-----|-----------5--------5-----|
G#||--0-----------------------|--0-----------------------|
D#||--------------------------|--------------------------|


                                                      
--------------------------|--------------------------|
-----3--------3--------3--|-----1--------------1-----|
--------4--------4--------|--------2--------2-----2--|
--5--------5--------5-----|--3--------2--3-----------|
--------------------------|--------------------------|
--------------------------|--------------------------|


                                                                                
-----------0-----------0--|-----------3--------3-----|-----------0--1----------|
--------------1-----------|--------------3--------3--|--------3--------3-------|
--------2--------2--------|--------0--------0--------|-----2--------------2----|
-----2--------------2-----|-----0--------------------|--0----------------------|
--0-----------------------|--2-----------------------|-------------------------|
--------------------------|--------------------------|-------------------------|


                        Verse 1                                               
--------1--0--1--------|--------------------------|--------------------------|
-----1-----------------|-----5--------5--------5--|-----3--------3--------3--|
-----------------------|--------5--------5--------|--------5--------5--------|
--3--------------------|-----------7--------7-----|-----------5--------5-----|
-----------------------|--0-----------------------|--0-----------------------|
-----------------------|--------------------------|--------------------------|


                                                      
--------------------------|--------------------------|
-----3--------3--------3--|-----1--------------1-----|
--------4--------4--------|--------2--------2-----2--|
--5--------5--------5-----|--3--------2--3-----------|
--------------------------|--------------------------|
--------------------------|--------------------------|


                                                                                
-----------0-----------0--|-----------3--------3-----|-----------0--1----------|
--------------1-----------|--------------3--------3--|--------3--------3-------|
--------2--------2--------|--------0--------0--------|-----2--------------2----|
-----2--------------2-----|-----0--------------------|--0----------------------|
--0-----------------------|--2-----------------------|-------------------------|
--------------------------|--------------------------|-------------------------|


                                                                              
--------1--0--1--------|--------------------------|--------------------------|
-----1-----------------|-----5--------5--------5--|-----3--------3--------3--|
-----------------------|--------5--------5--------|--------5--------5--------|
--3--------------------|-----------7--------7-----|-----------5--------5-----|
-----------------------|--0-----------------------|--0-----------------------|
-----------------------|--------------------------|--------------------------|


                                                      
--------------------------|--------------------------|
-----3--------3--------3--|-----1--------------1-----|
--------4--------4--------|--------2--------2-----2--|
--5--------5--------5-----|--3--------2--3-----------|
--------------------------|--------------------------|
--------------------------|--------------------------|


                                                                                
-----------0-----------0--|-----------3--------3-----|-----------0--1----------|
--------------1-----------|--------------3--------3--|--------3--------3-------|
--------2--------2--------|--------0--------0--------|-----2--------------2----|
-----2--------------2-----|-----0--------------------|--0----------------------|
--0-----------------------|--2-----------------------|-------------------------|
--------------------------|--------------------------|-------------------------|


                        Bridge                                              
--------1--0--1--------|--------------0-----------|--------------3--------3--|
-----1-----------------|-----------1-----1--------|-----------3-----3--------|
-----------------------|--------0-----------0-----|--------0-----------0-----|
--3--------------------|-----2-----------------2--|-----0--------------------|
-----------------------|--3-----------------------|--------------------------|
-----------------------|--------------------------|--3-----------------------|


                                                                                
-----------0--1----------|--------------------------|-----------3-----------1--|
--------3--------3-------|-----------0--1--------1--|--------3-----------1-----|
-----2--------------2----|--------2--------2--------|-----4-----------2--------|
--0----------------------|-----2--------------2-----|--5-----------3-----------|
-------------------------|--0-----------------------|--------------------------|
-------------------------|--------------------------|--------------------------|


                                                                       
-------------------------|--------------3----------|------------------|
-----------0--1----------|-----------3-----3-------|------------------|
--------2--------2-------|--------0-----------0----|------------------|
-----2--------------2----|-----0-------------------|------------------|
--0----------------------|-------------------------|------------------|
-------------------------|--3----------------------|------------------|


Riff                                                      
--------------------------|--------------------------|
-----5--------5--------5--|-----3--------3--------3--|
--------5--------5--------|--------5--------5--------|
-----------7--------7-----|-----------5--------5-----|
--0-----------------------|--0-----------------------|
--------------------------|--------------------------|


                                                      
--------------------------|--------------------------|
-----3--------3--------3--|-----1--------------1-----|
--------4--------4--------|--------2--------2-----2--|
--5--------5--------5-----|--3--------2--3-----------|
--------------------------|--------------------------|
--------------------------|--------------------------|


Verse 2                                                      
--------------------------|--------------------------|
-----5--------5--------5--|-----3--------3--------3--|
--------5--------5--------|--------5--------5--------|
-----------7--------7-----|-----------5--------5-----|
--0-----------------------|--0-----------------------|
--------------------------|--------------------------|


                                                      
--------------------------|--------------------------|
-----3--------3--------3--|-----1--------------1-----|
--------4--------4--------|--------2--------2-----2--|
--5--------5--------5-----|--3--------2--3-----------|
--------------------------|--------------------------|
--------------------------|--------------------------|


                                                                                
-----------0-----------0--|-----------3--------3-----|-----------0--1----------|
--------------1-----------|--------------3--------3--|--------3--------3-------|
--------2--------2--------|--------0--------0--------|-----2--------------2----|
-----2--------------2-----|-----0--------------------|--0----------------------|
--0-----------------------|--2-----------------------|-------------------------|
--------------------------|--------------------------|-------------------------|


                        Bridge                                                      
--------1--0--1--------|--------------0-----------|--------------3--------3--|
-----1-----------------|-----------1-----1--------|-----------3-----3--------|
-----------------------|--------0-----------0-----|--------0-----------0-----|
--3--------------------|-----2-----------------2--|-----0--------------------|
-----------------------|--3-----------------------|--------------------------|
-----------------------|--------------------------|--3-----------------------|


                                                                                
-----------0--1----------|--------------------------|-----------3-----------1--|
--------3--------3-------|-----------0--1--------1--|--------3-----------1-----|
-----2--------------2----|--------2--------2--------|-----4-----------2--------|
--0----------------------|-----2--------------2-----|--5-----------3-----------|
-------------------------|--0-----------------------|--------------------------|
-------------------------|--------------------------|--------------------------|


                                                                       
-------------------------|--------------3----------|------------------|
-----------0--1----------|-----------3-----3-------|------------------|
--------2--------2-------|--------0-----------0----|------------------|
-----2--------------2----|-----0-------------------|------------------|
--0----------------------|-------------------------|------------------|
-------------------------|--3----------------------|------------------|



                   Outro                                                      
------------------|--------------------------|--------------------------|
------------------|-----5--------5--------5--|-----3--------3--------3--|
------------------|--------5--------5--------|--------5--------5--------|
------------------|-----------7--------7-----|-----------5--------5-----|
------------------|--0-----------------------|--0-----------------------|
------------------|--------------------------|--------------------------|


                                                      
--------------------------|--------------------------|
-----3--------3--------3--|-----1--------------1-----|
--------4--------4--------|--------2--------2-----2--|
--5--------5--------5-----|--3--------2--3-----------|
--------------------------|--------------------------|
--------------------------|--------------------------|


                                                                                
-----------0-----------0--|-----------3--------3-----|-----------0--1----------|
--------------1-----------|--------------3--------3--|--------3--------3-------|
--------2--------2--------|--------0--------0--------|-----2--------------2----|
-----2--------------2-----|-----0--------------------|--0----------------------|
--0-----------------------|--2-----------------------|-------------------------|
--------------------------|--------------------------|-------------------------|


rit.                                               
--------1--0--1--------1--||
-----1-----------1--------||
--------------------------||
--3-----------------3-----||
--------------------------||
--------------------------||
            
Submit corrections

comments powered by Disqus
↑ Back to top | Hammerfall Tabs for Remember Yesterday. Lyrics for acoustic guitar and electric guitar. 1 Tablatures and chords are parodies/interpretations of the original songs. You may use it for private study, scholarship, research or language learning purposes only