» » »

Hammerfall, Remember Yesterday Bass tabs (ver.1)

Artists:  A B C D E F G H I J K L M N O P Q R S T U V W X Y Z # 

Remember Yesterday Bass tabs (ver.1)

Hammerfall Tabs
Rating:
0/5 (0 votes)
Remember Yesterday  lessons Tabs too difficult? Try these video lessons and learn fast
                (1)



Tuning 1/2 step down



Verse 1

|---------|---------|---------|---------|---------|---------|---------|
|---------|---------|---------|---------|---------|---------|---------|
|---------|---------|----0--2-|----0----|---------|---/10\--|----0----|
|---/5\---|----3----|---------|---------|----0----|---------|---------|



Pre-Chorus

|---------|---------|---------|---------|---------|---------|---------|---------|
|---------|---------|---------|---------|---------|---------|---------|---------|
|----3----|---------|---------|---0-----|---------|---------|---------|---------|
|---------|--0-3----|---0/5---|-----0---|--1---3--|----5----|----3----|----1----|

|---------|
|---------|
|---------|
|-11111-3-|



Chorus

|---------|---------|---------|---------|---------|---------|---------|---------|
|---------|---------|---------|---------|---------|---------|---------|---------|
|---------|----3----|---2-----|---------|---------|----3----|----2----|----/10\-|
|---0-----|---------|---------|---0---1-|----3----|---------|---------|-5-------|



Verse 2

|---------|---------|---------|---------|---------|---------|---------|---------|
|---------|---------|---------|---------|---------|---------|---------|---------|
|---------|---------|----0----|---0-3---|----0----|---------|---/10\--|----0----|
|----0----|---0--3--|-/5------|---------|---------|---3--5--|---------|---------|



Special

|---------|---------|---------|---------|---------|---------|
|---------|---------|---------|---------|---------|---------|
|---------|----0----|---------|---------|---------|----0----|
|---1-----|---------|----3----|--11-3---|--11-3---|---------|

|_________________________________________________|
			|
		       x 2



Solo

|---------|---------|---------|---------|---------|---------|---------|---------|
|---------|---------|---------|---------|---------|---------|---------|---------|
|---------|----0----|---------|----0----|---------|---------|---3-----|----5----|
|---0-----|---------|0-003-003|---------|----0----|--3--5---|---------|---------|

|---------|---------|---------|
|---------|---------|---------|
|---------|----0----|---------|
|0-003-003|---------|-11111-3-|



Ending

|---------|---------|---------|---------|---------|---------|
|---------|---------|---------|---------|---------|---------|
|---------|----0----|---------|---------|---------|0---/12\-|
|---1-----|---------|----3----|--11-3---|--11-3---|---------|

|_________________________________________________|
			|
		       X 2




PLAY:

Verse 1
Pre-chorus
Chorus x 2
Verse 2
Pre-Chorus
Chorus x 2
Special
Solo
Chorus x 2
Ending


For any comments, questions etc please contact me
            
Submit corrections

comments powered by Disqus
↑ Back to top | Hammerfall Bass for Remember Yesterday. Lyrics for acoustic guitar and electric guitar. Tablatures and chords are parodies/interpretations of the original songs. You may use it for private study, scholarship, research or language learning purposes only