» » »

Hale, Kahit Pa Bass tabs (ver.1)

Artists:  A B C D E F G H I J K L M N O P Q R S T U V W X Y Z # 

Kahit Pa Bass tabs (ver.1)

Hale Tabs
Rating:
4/5 (4 votes)
Kahit Pa lessons Tabs too difficult? Try these video lessons and learn fast
                
Standard Tuning (E-A-D-G)

Legend:
T- Slap/Thumb
P- Pop
s- Slide
h- hammer
p- pull
x- mute (palm mute)
/- Increasing Slide (pataas ung pag slide)
\- Descending Slide (pababa ung pag slide)

Intro
G|------------------------------------------------------|
D|-------------------------7--7-------7-----------------|
A|-7-----7\6-6h7-6h7--------------7---------------------|
E|---7h9--------5----7-5-5--5---5---5---5---------------|

G|------------------------------------------------------|
D|-------------------------------7---(pause)------------|
A|-7-----7\6-6h7-6--6----------7------------------------|
E|---7h9----------7--7-0-5-5-55-------------------------|

Verse 1
G|------------------------------------------------------|
D|------------------------------7-----------------------|
A|--7-------9-7-6-6-7-9-7-------------------------------|
E|1/---7h9-7---------------9-7-55--5-5h7-0-5h7-0-5h7----|

G|------------------------------------------------------|
D|-----------------------------------7-(pause)----------|
A|-7-------9-7-6-6-7-9-7--------------------------------|
E|---7h9-7---------------9-7-55-55-5--------------------|

Pre-Chorus
G|------------------------------------------------------|
D|-----9h11------7h9------------------------------------|
A|--------------------------9---------9-----------------|
E|-7h9------5h7--------7777---7--7777---7---------------|
                       TTTT P T  TTTT P T

G|------------------------------------------------------|
D|-----9h11------7h9------------------------------------|
A|-------------------------------22222222(pause)--------|
E|-7h9------5h7------55555555555------------------------|

Chorus
G|------------------------------------------------------------------|
D|------------------------------------------------------------------|
A|---------2-2x2-2-2-00-00--00-22-0-2/7x777--2-222-00--00-2-0-2-2h4-|
E|-12\0x0-0-0-------------------------------------------------------|

G|-------------------------------------------------------|
D|---------------------------/12-12-12-12-12-12-12-12-12-|
A|-------22x22-2/4--444-4/5------------------------------|
E|-0x000-------------------------------------------------|

(REPEAT INTRO)

(AFTER REPEATING THE INTRO, REPEAT THE PATTERN IN VERSE 1)

(THEN PRE-CHORUS)

(Eto ung part na may "at kahit pa, ikaw lamang...")
G|-------------------------------------------------------|
D|-------------------------------------------------------|
A|---------2-2-2-2---------------------------------------|(Repeat 2x)
E|-5-5-5-5---------2-2x2x-2-2x2x-------------------------|


While The Solo is going on, this is what you do:
G|-----------------------------------------------------------------------------------|
D|-----------------------------------------------------------------------------------|
A|-----------------22222------------------------222222-44444-5555-4444---------------|
E|--5555555555555--------222222--5555555555555-------------------------5-4-----------|

Then:
G|-------------------------------------------------------|
D|-------------------------9--9s11-9-8h9-8---------------|
A|-----------------------9--9-------------9--------------|
E|-2-2-0-2-4-5-5-0-5-7-7---------------------------------|

G|-------------------------------------------------------|
D|-------------------------------------------------------|
A|-------------------------------------------------------|
E|-2--2-0-2-4-5--5-0-5-7--7-7h9-7-7h9--------------------|

G|-------------------------------------------------------|
D|-------------------------------------------------------|
A|-------------------------------------------------------|
E|-2-2-2-2--5-5-5-5--7-7-7-7-7-7-7-7---------------------|

G|-------------------------------------------------------|
D|-------------------------------------------------------|
A|------------------------------------555555555555555----|
E|-2-2-2-2--5-5-5-5--777777777777777---------------------|

Chorus
G|------------------------------------------------------------------|
D|------------------------------------------------------------------|
A|---------2-2x2-2-2-00-00--00-22-0-2/7x777--2-222-00--00-2-0-2-2h4-|
E|-12\0x0-0-0-------------------------------------------------------|

G|-------------------------------------------------------|
D|---------------------------/12-12-10-10-99-------------|
A|-------22x22-2/4--444-4/5-----------------10-----------|
E|-0x000-------------------------------------------------|

G|-------------------------------------------------------|
D|-------------------------------------------------------|
A|---------2-2-2-2---------------------------------------|
E|-5-5-5-5---------2-2x2x-2-2x2x-------------------------|

G|-------------------------------------------------------|
D|-------------------------------------------------------|
A|---------2-2-2-2------------/9h11-9h11-----------------|
E|-5-5-5-5---------2-2x2x-2------------------------------|

G|-------------------------------------------------------|
D|-------------------------------------------------------|
A|---------2-2-2-2-------------------555555555-----------|
E|-5-5-5-5---------2-2x2x-2-2x2x-------------------------|


ENDING NOTE: E
G|----------|
D|----------|
A|----------|
E|--0-------|

::::: F e e l   F r e e !!:::::
            

comments powered by Disqus
↑ Back to top | Hale Bass for Kahit Pa. Lyrics for acoustic guitar and electric guitar. Tablatures and chords are parodies/interpretations of the original songs. You may use it for private study, scholarship, research or language learning purposes only