» » »

Bahay Kubo Tabs (ver.3)

Artists:  A B C D E F G H I J K L M N O P Q R S T U V W X Y Z # 

Bahay Kubo Tabs (ver.3)

Hale
Rating:
0/5 (0 votes)

Hard to play? Try these video lessons and learn fast.
                
Intro/Verses:
|-2--2--2--2---6--6--6--6----|*Repeat nyo bago mg Fill In para 
|--0--0--0--0---0--0--0--0---| sa chorus
|----3--3--3--3---3--3--3--3-|  
|----------------------------|
|----------------------------|
|----------------------------|

Fill b4 Chorus:
|-------|
|-------|
|-44444-|
|-44444-|
|-22222-|
|-------|
  .....

Chorus:
|-22222-66666-444444-222222-|*Repeat 4x
|-22222-66666---------------|
|-44444-88888-444444-222222-|
|-44444-88888-666666-444444-|
|-22222-66666-666666-444444-|
|-------------444444-222222-|

continued

|-------2222-|
|-------2222-|
|-------4444-|
|-66666-4444-|
|-66666-2222-|
|-44444------|

Verse..
May sumasabay dito:
|-2222-66666--|*Repeat lng 'to
|-2222-66666--| hanggang sa Fill In b4 chorus..
|-4444-88888--|
|-4444-88888--|
|-------------|
|-------------|

Repeat Chorus


Solo:
|-------------------------------------------14-12-11-9-|*2x
|-1212121212-14-1616161616--12-141414141414------------|
|------------------------------------------------------|
|------------------------------------------------------|
|------------------------------------------------------|
|------------------------------------------------------|

continued

|------14141414------14141414------14141414--14-12-11-|
|-11-12---------11-12---------11-12-------------------|
|-----------------------------------------------------|
|-----------------------------------------------------|
|-----------------------------------------------------|
|-----------------------------------------------------|

continued

|------14141414------14141414------14141414--14-12-11-9~|
|-11-12---------11-12---------11-12---------------------|
|-------------------------------------------------------|
|-------------------------------------------------------|
|-------------------------------------------------------|
|-------------------------------------------------------|

Repeat Chorus except ung last part,
instead:
|-44444-|
|-44444-|
|-44444-|
|-66666-|
|-66666-|
|-44444-|nlng..

Outro(d same lng sa intro)



pls. rate poH...
pngHirapan q 2...
tnkz poH...



"mary para sau 2 ...!!
 i really really luv u..!!"
            
Hard to play? Try these video lessons and learn fast. | Correct




comments powered by Disqus
↑ Back to top | Tablatures and chords are parodies/interpretations of the original songs. You may use it for private study, scholarship, research or language learning purposes only