» » »

Welcome To The Jungle Tabs (ver.3)

Artists:  A B C D E F G H I J K L M N O P Q R S T U V W X Y Z # 

Welcome To The Jungle Tabs (ver.3)

Guns N Roses
Rating:
0/5 (0 votes)

Hard to play? Try these video lessons and learn fast.
                Tuning: 1/2 Step Down (Eb Bb Gb Db Ab Eb)

( ) Harmonics
X   Scratch
b   Bend
/   Slide

This is one of my favorite songs.  I really wanted to tab this song, but it's
extremely hard to figure out all 3 guitar parts. You can play this song on one
guitar. I did the best I could with all the equipment I had.  Besides, how much
can a teenager really learn on his own?  I've worked on this with friends for 
like 3 1/2 weeks.  I think it's at least a 3 star rating.

INTRO - Play the 1st measure once, then the second measure 7X.
       1st Measure              2nd Measure
Eb||----------------------|----------------------|
Bb||----------------------|----------------------|
Gb||--4------4------------|4-4--2-2--------------|
Db||----------------------|----------4-4--2-2-0--|
Ab||----------------------|---------------------2|
Eb||----------------------|----------------------|


PRE-CHORUS - Play once
Eb||----------------------|-------5--5-----------|
Bb||----------------3-5---|--5b------5b---3------|
Gb||-----------2-4--------|------------------4---|
Db||------2-4-------------|----------------------|
Ab||-2-4------------------|----------------------|
Eb||----------------------|----------------------|


VERSE - Play this measure 8X.
(THE NOTES ON THE Db STRING ARE OPTIONAL TO PLAY)
Eb||----------------------|
Bb||----------------------|
Gb||----------------------|
Db||7--7--5-7--7--7-5-4-2-|
Ab||7--7--5-7--7--7-5-4-2-|
Eb||5--5--3-5--5--5-3-2-0-|

Then play this measure 4X.
Eb||----------------------|
Bb||----------------------|
Gb||-9-9-7-X-9-9----------|
Db||-9-9-7-X-9-9--7-6-----|
Ab||-7-7-5-X-7-7--5-4-9---|
Eb||------------------7---|


CHORUS - 1X
Eb||----------------------|
Bb||----------------------|
Gb||5------------7--------|
Db||5------------7--------|
Ab||3--2---------5--4-----|
Eb||------5--4--------7--5|


POST CHORUS - Play the First measure 3X then the second measure once.
      First Measure          Second Measure
Eb||----------------------|----------------------|
Bb||----------------------|----------------------|
Gb||-9-9------------------|----------------------|
Db||-9-9------------------|----------------------|
Ab||-7-7-5----------------|-7---5----------------|
Eb||-------6-6-6/5-5-3-0--|----------6---5--3--4-|


FIRST SOLO - I had some problems with where to bend, pick-off, hammer, and 
vibrate.  Sorry, but I was lucky enough to figure out the notes!
Eb||----------------------|----------------------|-----------------------| 
Bb||----------------------|---------12-----------|15---------------15--15| 
Gb||-12/13-------------13-|13-(13)--12--13-X-X---|16---12/11-------13--13| 
Db||-11/12-----(12)-14-14-|14-(14)------14-X-X---|-----13/12-------------| 
Ab||----------------------|----------------------|-----------------------| 
Eb||--------0-------------|----------------------|-----------0--0--------| 

Eb||----------------------|-15-15----------------|19----19-18-17---15-16-| 
Bb||-(15)-12---14/15------|-15-15-----------17---|-----------------------| 
Gb||-(13)------15/16------|---------6/0--/18-----|-----------------------| 
Db||----------------------|----------------------|-----------------------| 
Ab||----------------------|----------------------|-----------------------| 
Eb||----------------------|----------------------|-----------------------| 

Eb||-----------------------|----------------------|----------------------| 
Bb||15----(15)\---15---(15)|15-12-----------------|----------------------| 
Gb||-----------------------|--------14--14(14)-12-|14-12-----------------| 
Db||-----------------------|----------------------|-----------14-14------| 
Ab||-----------------------|----------------------|-----------------13-13| 
Eb||-----------------------|----------------------|----------------------| 

Eb||-----------------------|----------------------|----------------------| 
Bb||-----------------------|----------------------|----------------------| 
Gb||-----------------------|---8------------------|----------------------| 
Db||-----------------------|----------------------|-11\------------------| 
Ab||--12-(12)-10-----------|----------------------|----------------------| 
Eb||---------------12------|----------------------|----------------------|


PRE-SOLO - This is about 50% right, I think.  This comes after the chorus is 
played again.  Once again, no clue where to hammer and that stuff
Eb||-----------------------|----------------------|----------------------| 
Bb||-----------------------|---6--------8-7-------|-------13-12---------8| 
Gb||--7----5-----4-----(4)\|---4----7---7---------|---12---------7\5--5--| 
Db||--7----5-----5-----(5)\|--------7---7----7--10|---12-----------------| 
Ab||--5----3-----5-----(5)\|--------5------------8|---10-----------------| 
Eb||-------------3-----(3)\|----------------------|----------------------| 

Eb||-----------------------|----------------------|----------------------| 
Bb||-7---------------------|---13-12---------10\7-|--7-------------------| 
Gb||---7-----------------12|----------------------|--7-------------------|
Db||-----7--6--7----10---12|---------12-10---10\7-|--7----------------10-| 
Ab||-----------------8---10|----------------------|--------------------8-| 
Eb||-----------------------|----------------------|----------------------| 


THE "SUCK DOWN" PART - Play this part 2X
Eb||-----------------------|----------------------|----------------------| 
Bb||-----------------------|----------------------|----------------------| 
Gb||-------6/7-------------|9-------9-----9---6/7-|-------------12---12--| 
Db||-------5/6-------------|9-------9-----9---5/6-|-------------12---12--| 
Ab||-----------------------|----------------------|----------------------| 
Eb||---0---------0----0----|-----0----------------|---0------0-----------| 


SECOND SOLO - The next 4 bars
Eb||-----------------------|----------------------|----------------------| 
Bb||-----------------------|----------------------|----------------------| 
Gb||-----------------------|----------------------|----9--------11---(11)| 
Db||-----------------------|----------9-9--11-(11)|--------11------------| 
Ab||--------7----9----(9)--|--7-7-9/11------------|----------------------| 
Eb||--9--------9-----------|----------------------|----------------------| 

Eb||-----------------------|----------------------|---------------------0| 
Bb||-----------------------|--------12-(12)----12-|-------------------5-5| 
Gb||--(11)----11--(11)-9---|--9-----11-(11)----11-|(11)-9-----------6-6--| 
Db||---------------------11|----------------------|-------11-9-(9)/6-----| 
Ab||-----------------------|----------------------|----------------------| 
Eb||-----------------------|----------------------|----------------------| 

Eb||--(0)--0--0--0---------|----------------------|----------------------| 
Bb||--(5)--3--2--0---2--2--|0----0----0--(0)--0--0|-0--0--2--4-----------| 
Gb||-----------------2--2--|0--1-1--2-4--(4)--4--2|-2--1--2--4-----------| 
Db||-----------------------|----------------------|-------4--4--2-(2)-0-2| 
Ab||-----------------------|----------------------|----------------------| 
Eb||-----------------------|----------------------|----------------------| 

Eb||-----------------------|----------------------|----------------------| 
Bb||---------15-15--(15)-15|--(15)----------------|-------------14\12----| 
Gb||-/4--------------------|-------14--14--14-(14)|-12-------------6-----| 
Db||-/4--/12---------------|----------------------|------14-12--14\12----| 
Ab||-----------------------|----------------------|----------------------| 
Eb||-----------------------|----------------------|----------------------| 

Eb||-----------------------|----------------------|----------------------| 
Bb||-----------------------|----------------------|----------------------| 
Gb||--(6)--4---------------|----------------------|----------------------| 
Db||----------6b------4----|----------------------|----------------------| 
Ab||---------------------4-|(4)--2----------------|----------------------| 
Eb||-----------------------|-------4b-----0--2----|----(2)---------------| 

ENDING - 1X
Eb||-----------------------|----------------------|----------------------| 
Bb||-----------------------|----------------------|----------------------| 
Gb||---9---7---------------|----------------------|----------------------| 
Db||---9---7----8----7---5-|--X---7---5---2-------|-2--let the note ring-| 
Ab||---7---5----8----7---5-|--X---7---5---2-------|-2--------------------| 
Eb||------------6----5---3-|--X---5---3---0-------|-0--------------------| 

ORDER:

INTRO
PRE-VERSE
VERSE
CHORUS
POST-CHORUS
VERSE (PLAY THE 1ST MEASURE ONLY 4X THIS TIME)
CHORUS
POST-CHORUS
SOLO #1
VERSE (PLAY THE 1ST MEASURE ONLY 4X THIS TIME)
CHORUS
PRE-SOLO
"SUCKED DOWN" PART
SOLO #2
CHORUS
POST CHORUS (ONLY PLAY THE 1ST MEASURE 1X.)
CHORUS
POST CHORUS (ONLY PLAY THE 1ST MEASURE 1X.)
CHORUS
POST CHORUS (ONLY PLAY THE 1ST MEASURE 1X.)
ENDING
            
Hard to play? Try these video lessons and learn fast. | Correct




comments powered by Disqus
↑ Back to top | Tablatures and chords are parodies/interpretations of the original songs. You may use it for private study, scholarship, research or language learning purposes only