» » »

Guns N Roses, Welcome To The Jungle Bass tabs (ver.3)

Artists:  A B C D E F G H I J K L M N O P Q R S T U V W X Y Z # 

Welcome To The Jungle Bass tabs (ver.3)

Guns N Roses Tabs
Rating:
0/5 (0 votes)
Hard to play? Try these video lessons and learn fast.
                Welcome to the Jungle Bass Tab.
Tuning: Eb
The bass parts for the guitar solo's and the breakdown are a bit sketchy but i did the 
i best could so here it is:
Intro
|--------------------------------------------------|
|--------------------------------------------------|
|----------------7-5-----2-2-2-2-2-2-2-2—2-2-2-2-2-|
|-7--5--3-0--7-5----5------------------------------|

|--------------------------------------------------|
|--------------------------------------------------|
|--------------------------------------------------| 4x
|-5-5-3-5-5-5-3-2----------------------------------|
Verse Pt 1
|--------------------------------------------------|
|--------------------------------------------------|
|--------------------------------------------------| 4x
|-5-5-3-5-5-5-3-2----------------------------------|
Verse Pt.2
|--------------------------------------------------|
|--------------------------------------------------|4X
|-7-7-5-7-7-5-4-2----------------------------------|
|--------------------------------------------------|
Chorus
|--------------------------------------------------|
|--------------------------------------------------|
|-3-2-----5-4--------------------------------------|
|-----5-3-----7-5----------------------------------|


|---------------|
|---------------|x4
|-7-7-5---------|
|-------6-5-3-0-|
Verse 2
Pt.1
|--------------------------------------------------|
|--------------------------------------------------|
|--------------------------------------------------| 4x
|-5-5-3-5-5-5-3-2----------------------------------|
Pt.2
|--------------------------------------------------|
|--------------------------------------------------|4X
|-7-7-5-7-7-5-4-2----------------------------------|
|--------------------------------------------------|
Chorus
|--------------------------------------------------|
|--------------------------------------------------|
|-3-2-----5-4--------------------------------------|
|-----5-3-----7-5----------------------------------|

|---------------|
|---------------|x4
|-7-7-5---------|
|-------6-5-3-0-|
Part under the 1st guitar solo
--------------------------------|
--------------------------------|
-7-7-7-7-7-7-7-7-7-7-7-7-7-7----|
--------------------------------|
Verse 3
Pt.1
|--------------------------------------------------|
|--------------------------------------------------|
|--------------------------------------------------| 4x
|-5-5-3-5-5-5-3-2----------------------------------|
Pt.2
|--------------------------------------------------|
|--------------------------------------------------|4X
|-7-7-5-7-7-5-4-2----------------------------------|
|--------------------------------------------------|

Chorus
|--------------------------------------------------|
|--------------------------------------------------|
|-3-2-----5-4--------------------------------------|
|-----5-3-----7-5----------------------------------|

|---------------|
|---------------|x4
|-7-7-5---------|
|-------6-5-3-0-|
When you’re High Part
------------------------|
------------------------|
-5--5---5---5-----------|
--3---3---3-------------|
Suck Down Part
-----------------------------------------------|
-----------------------------------------------|
-----------------------------------------------|
-3-3-3-3-3-1-3-3-3-3-3-1-3-3-3-3-3-1-5-5-5-5-5-|
Guitar Solo
Pt. 1
-----------------------------------------------|
-----------------------------------------------|
-7-7-7-7-7-7-7-7-7-7-7-7-7—7-7-7-7-7-7-7-7-7-7-|
-----------------------------------------------|
Pt. 2
-------------------------------------------------|
--------------------------2----------------------|
-4----------------2-7-5-4----1-0--0--------------|
---7---4----2--0-----------------3--3------------|
Pt. 3
-------------------------------------------------|
-------------------------------------------------|
-5-5-5-5-5-5-5-5-5-5-7-7-7-7-7-7-7-7-7-7-7-7-7---|
-----------------------------------------------2-|
Breakdown
-----------------------------------------------|
-----------------------------------------------|A bunch of times listen for timing
-7-7-7-7--5-5-5-5-4-4-3-3-2-2------------------|
-----------------------------------------------|
Do the Chorus 3 times
Then on the fourth time end on this
--------------------------------------------------|
--------------------------------------------------|
-7-5----------------------------------------------|
-----6-5-3-5-6-3-0-0------------------------------|
            

comments powered by Disqus
↑ Back to top | Guns N Roses Bass for Welcome To The Jungle. Lyrics for acoustic guitar and electric guitar. Tablatures and chords are parodies/interpretations of the original songs. You may use it for private study, scholarship, research or language learning purposes only